ISO-10303-21;
HEADER;
/* Generated by software containing ST-Developer
 * from STEP Tools, Inc. (www.steptools.com) 
 */
/* OPTION: using custom schema-name function */

FILE_DESCRIPTION(
/* description */ (''),
/* implementation_level */ '2;1');

FILE_NAME(
/* name */ '7820086_7801427.stp',
/* time_stamp */ '2020-01-14T16:07:54+09:00',
/* author */ (''),
/* organization */ (''),
/* preprocessor_version */ 'ST-DEVELOPER v16.7',
/* originating_system */ 'SIEMENS PLM Software NX 12.0',
/* authorisation */ '');

FILE_SCHEMA (('AUTOMOTIVE_DESIGN { 1 0 10303 214 3 1 1 1 }'));
ENDSEC;

DATA;
#10=CONTEXT_DEPENDENT_SHAPE_REPRESENTATION(#14,#38);
#11=CONTEXT_DEPENDENT_SHAPE_REPRESENTATION(#15,#39);
#12=NEXT_ASSEMBLY_USAGE_OCCURRENCE('1001',' ','CUT_7820086_7801427',#42,
#41,$);
#13=NEXT_ASSEMBLY_USAGE_OCCURRENCE('1002',' ','NOCUT_7820086_7801427',#42,
#40,$);
#14=(
REPRESENTATION_RELATIONSHIP(' ',' ',#61,#62)
REPRESENTATION_RELATIONSHIP_WITH_TRANSFORMATION(#16)
SHAPE_REPRESENTATION_RELATIONSHIP()
);
#15=(
REPRESENTATION_RELATIONSHIP(' ',' ',#60,#62)
REPRESENTATION_RELATIONSHIP_WITH_TRANSFORMATION(#17)
SHAPE_REPRESENTATION_RELATIONSHIP()
);
#16=ITEM_DEFINED_TRANSFORMATION(' ',' ',#361,#391);
#17=ITEM_DEFINED_TRANSFORMATION(' ',' ',#361,#392);
#18=CONSTRUCTIVE_GEOMETRY_REPRESENTATION_RELATIONSHIP(
'supplemental geometry','',#60,#20);
#19=CONSTRUCTIVE_GEOMETRY_REPRESENTATION_RELATIONSHIP(
'supplemental geometry','',#61,#21);
#20=CONSTRUCTIVE_GEOMETRY_REPRESENTATION('supplemental geometry',(#378,
#379),#560);
#21=CONSTRUCTIVE_GEOMETRY_REPRESENTATION('supplemental geometry',(#370,
#371),#559);
#22=GEOMETRICALLY_BOUNDED_WIREFRAME_SHAPE_REPRESENTATION(
'NOCUT_7820086_7801427-None',(#63),#560);
#23=GEOMETRICALLY_BOUNDED_WIREFRAME_SHAPE_REPRESENTATION(
'CUT_7820086_7801427-None',(#64),#559);
#24=GEOMETRICALLY_BOUNDED_WIREFRAME_SHAPE_REPRESENTATION(
'7820086_7801427-None',(#65),#558);
#25=SHAPE_REPRESENTATION_RELATIONSHIP('None',
'relationship between NOCUT_7820086_7801427-None and NOCUT_7820086_780
1427-None',#60,#30);
#26=SHAPE_REPRESENTATION_RELATIONSHIP('None',
'relationship between NOCUT_7820086_7801427-None and NOCUT_7820086_780
1427-None',#60,#22);
#27=SHAPE_REPRESENTATION_RELATIONSHIP('None',
'relationship between CUT_7820086_7801427-None and CUT_7820086_7801427
-None',#61,#31);
#28=SHAPE_REPRESENTATION_RELATIONSHIP('None',
'relationship between CUT_7820086_7801427-None and CUT_7820086_7801427
-None',#61,#23);
#29=SHAPE_REPRESENTATION_RELATIONSHIP('None',
'relationship between 7820086_7801427-None and 7820086_7801427-None',#62,
#24);
#30=ADVANCED_BREP_SHAPE_REPRESENTATION('NOCUT_7820086_7801427-None',(#80),
#560);
#31=ADVANCED_BREP_SHAPE_REPRESENTATION('CUT_7820086_7801427-None',(#79),
#559);
#32=SHAPE_DEFINITION_REPRESENTATION(#35,#60);
#33=SHAPE_DEFINITION_REPRESENTATION(#36,#61);
#34=SHAPE_DEFINITION_REPRESENTATION(#37,#62);
#35=PRODUCT_DEFINITION_SHAPE('','',#40);
#36=PRODUCT_DEFINITION_SHAPE('','',#41);
#37=PRODUCT_DEFINITION_SHAPE('','',#42);
#38=PRODUCT_DEFINITION_SHAPE(' ','NAUO PRDDFN',#12);
#39=PRODUCT_DEFINITION_SHAPE(' ','NAUO PRDDFN',#13);
#40=PRODUCT_DEFINITION(' ','',#46,#43);
#41=PRODUCT_DEFINITION(' ','',#47,#44);
#42=PRODUCT_DEFINITION(' ','',#48,#45);
#43=PRODUCT_DEFINITION_CONTEXT('part definition',#59,'design');
#44=PRODUCT_DEFINITION_CONTEXT('part definition',#59,'design');
#45=PRODUCT_DEFINITION_CONTEXT('part definition',#59,'design');
#46=PRODUCT_DEFINITION_FORMATION_WITH_SPECIFIED_SOURCE(' ',' ',#52,
 .NOT_KNOWN.);
#47=PRODUCT_DEFINITION_FORMATION_WITH_SPECIFIED_SOURCE(' ',' ',#53,
 .NOT_KNOWN.);
#48=PRODUCT_DEFINITION_FORMATION_WITH_SPECIFIED_SOURCE(' ',' ',#54,
 .NOT_KNOWN.);
#49=PRODUCT_RELATED_PRODUCT_CATEGORY('part','',(#52));
#50=PRODUCT_RELATED_PRODUCT_CATEGORY('part','',(#53));
#51=PRODUCT_RELATED_PRODUCT_CATEGORY('part','',(#54));
#52=PRODUCT('NOCUT_7820086_7801427','NOCUT_7820086_7801427',' ',(#55));
#53=PRODUCT('CUT_7820086_7801427','CUT_7820086_7801427',' ',(#56));
#54=PRODUCT('7820086_7801427','7820086_7801427',' ',(#57));
#55=PRODUCT_CONTEXT(' ',#59,'mechanical');
#56=PRODUCT_CONTEXT(' ',#59,'mechanical');
#57=PRODUCT_CONTEXT(' ',#59,'mechanical');
#58=APPLICATION_PROTOCOL_DEFINITION('international standard',
'automotive_design',2010,#59);
#59=APPLICATION_CONTEXT(
'core data for automotive mechanical design processes');
#60=SHAPE_REPRESENTATION('NOCUT_7820086_7801427-None',(#361),#560);
#61=SHAPE_REPRESENTATION('CUT_7820086_7801427-None',(#361),#559);
#62=SHAPE_REPRESENTATION('7820086_7801427-None',(#361,#391,#392),#558);
#63=GEOMETRIC_CURVE_SET('None',(#533,#534));
#64=GEOMETRIC_CURVE_SET('None',(#486,#487,#239,#240,#241,#242,#243,#244));
#65=GEOMETRIC_CURVE_SET('None',(#468,#469,#470,#471,#472,#473,#227,#228,
#229,#230,#231,#232,#233,#234,#235,#236,#237,#238));
#66=CONICAL_SURFACE('',#389,15.,45.);
#67=CYLINDRICAL_SURFACE('',#383,14.5);
#68=CYLINDRICAL_SURFACE('',#387,16.);
#69=SURFACE_STYLE_USAGE(.BOTH.,#71);
#70=SURFACE_STYLE_USAGE(.BOTH.,#72);
#71=SURFACE_SIDE_STYLE('',(#73));
#72=SURFACE_SIDE_STYLE('',(#74));
#73=SURFACE_STYLE_FILL_AREA(#75);
#74=SURFACE_STYLE_FILL_AREA(#76);
#75=FILL_AREA_STYLE('',(#77));
#76=FILL_AREA_STYLE('',(#78));
#77=FILL_AREA_STYLE_COLOUR('',#165);
#78=FILL_AREA_STYLE_COLOUR('',#166);
#79=MANIFOLD_SOLID_BREP('',#81);
#80=MANIFOLD_SOLID_BREP('',#82);
#81=CLOSED_SHELL('',(#98,#99,#100,#101));
#82=CLOSED_SHELL('',(#102,#103,#104,#105,#106,#107));
#83=TOROIDAL_SURFACE('',#376,11.0813184571,3.);
#84=TOROIDAL_SURFACE('',#385,16.5,2.00000000000001);
#85=(
BOUNDED_SURFACE()
B_SPLINE_SURFACE(3,3,((#501,#502,#503,#504,#505,#506,#507),(#508,#509,#510,
#511,#512,#513,#514),(#515,#516,#517,#518,#519,#520,#521),(#522,#523,#524,
#525,#526,#527,#528)),.UNSPECIFIED.,.F.,.T.,.F.)
B_SPLINE_SURFACE_WITH_KNOTS((4,4),(1,3,3,3,1),(0.,1.),(-0.5,0.,0.5,1.,1.5),
 .UNSPECIFIED.)
GEOMETRIC_REPRESENTATION_ITEM()
RATIONAL_B_SPLINE_SURFACE(((1.,0.333333333333333,0.333333333333333,1.,0.333333333333333,
0.333333333333333,1.),(0.983199127104319,0.327733042368106,0.327733042368106,
0.983199127104319,0.327733042368106,0.327733042368106,0.983199127104319),
(0.983199127104319,0.327733042368106,0.327733042368106,0.983199127104319,
0.327733042368106,0.327733042368106,0.983199127104319),(1.,0.333333333333333,
0.333333333333333,1.,0.333333333333333,0.333333333333333,1.)))
REPRESENTATION_ITEM('')
SURFACE()
);
#86=FACE_BOUND('',#117,.T.);
#87=FACE_BOUND('',#118,.T.);
#88=FACE_BOUND('',#119,.T.);
#89=FACE_BOUND('',#120,.T.);
#90=FACE_BOUND('',#123,.T.);
#91=FACE_BOUND('',#124,.T.);
#92=FACE_BOUND('',#125,.T.);
#93=FACE_BOUND('',#126,.T.);
#94=FACE_BOUND('',#127,.T.);
#95=FACE_BOUND('',#128,.T.);
#96=FACE_BOUND('',#129,.T.);
#97=FACE_BOUND('',#130,.T.);
#98=ADVANCED_FACE('',(#112),#108,.T.);
#99=ADVANCED_FACE('',(#86,#87),#85,.T.);
#100=ADVANCED_FACE('',(#88,#89),#83,.T.);
#101=ADVANCED_FACE('',(#113),#109,.T.);
#102=ADVANCED_FACE('',(#114),#110,.F.);
#103=ADVANCED_FACE('',(#90,#91),#67,.T.);
#104=ADVANCED_FACE('',(#92,#93),#84,.F.);
#105=ADVANCED_FACE('',(#94,#95),#68,.T.);
#106=ADVANCED_FACE('',(#96,#97),#66,.T.);
#107=ADVANCED_FACE('',(#115),#111,.F.);
#108=PLANE('',#373);
#109=PLANE('',#377);
#110=PLANE('',#381);
#111=PLANE('',#390);
#112=FACE_OUTER_BOUND('',#116,.T.);
#113=FACE_OUTER_BOUND('',#121,.T.);
#114=FACE_OUTER_BOUND('',#122,.T.);
#115=FACE_OUTER_BOUND('',#131,.T.);
#116=EDGE_LOOP('',(#132));
#117=EDGE_LOOP('',(#133));
#118=EDGE_LOOP('',(#134));
#119=EDGE_LOOP('',(#135));
#120=EDGE_LOOP('',(#136));
#121=EDGE_LOOP('',(#137));
#122=EDGE_LOOP('',(#138));
#123=EDGE_LOOP('',(#139));
#124=EDGE_LOOP('',(#140));
#125=EDGE_LOOP('',(#141));
#126=EDGE_LOOP('',(#142));
#127=EDGE_LOOP('',(#143));
#128=EDGE_LOOP('',(#144));
#129=EDGE_LOOP('',(#145));
#130=EDGE_LOOP('',(#146));
#131=EDGE_LOOP('',(#147));
#132=ORIENTED_EDGE('',*,*,#156,.F.);
#133=ORIENTED_EDGE('',*,*,#156,.T.);
#134=ORIENTED_EDGE('',*,*,#157,.F.);
#135=ORIENTED_EDGE('',*,*,#157,.T.);
#136=ORIENTED_EDGE('',*,*,#158,.F.);
#137=ORIENTED_EDGE('',*,*,#158,.T.);
#138=ORIENTED_EDGE('',*,*,#159,.T.);
#139=ORIENTED_EDGE('',*,*,#159,.F.);
#140=ORIENTED_EDGE('',*,*,#160,.T.);
#141=ORIENTED_EDGE('',*,*,#160,.F.);
#142=ORIENTED_EDGE('',*,*,#161,.T.);
#143=ORIENTED_EDGE('',*,*,#161,.F.);
#144=ORIENTED_EDGE('',*,*,#162,.T.);
#145=ORIENTED_EDGE('',*,*,#162,.F.);
#146=ORIENTED_EDGE('',*,*,#163,.T.);
#147=ORIENTED_EDGE('',*,*,#163,.F.);
#148=VERTEX_POINT('',#497);
#149=VERTEX_POINT('',#500);
#150=VERTEX_POINT('',#530);
#151=VERTEX_POINT('',#538);
#152=VERTEX_POINT('',#541);
#153=VERTEX_POINT('',#544);
#154=VERTEX_POINT('',#547);
#155=VERTEX_POINT('',#550);
#156=EDGE_CURVE('',#148,#148,#175,.T.);
#157=EDGE_CURVE('',#149,#149,#176,.T.);
#158=EDGE_CURVE('',#150,#150,#177,.T.);
#159=EDGE_CURVE('',#151,#151,#178,.T.);
#160=EDGE_CURVE('',#152,#152,#179,.T.);
#161=EDGE_CURVE('',#153,#153,#180,.T.);
#162=EDGE_CURVE('',#154,#154,#181,.T.);
#163=EDGE_CURVE('',#155,#155,#182,.T.);
#164=COLOUR_RGB('Medium Maroon',0.6,0.4,0.4);
#165=COLOUR_RGB('Light Gray',0.8,0.8,0.8);
#166=COLOUR_RGB('Medium Gray',0.490196078431373,0.490196078431373,0.490196078431373);
#167=CIRCLE('',#362,1.75);
#168=CIRCLE('',#363,1.75);
#169=CIRCLE('',#364,1.75);
#170=CIRCLE('',#365,1.75);
#171=CIRCLE('CUTTING EDGE LINE',#366,3.);
#172=CIRCLE('CUTTING EDGE LINE',#367,47.9999999999992);
#173=CIRCLE('CUTTING EDGE LINE',#368,47.9999999999992);
#174=CIRCLE('CUTTING EDGE LINE',#369,3.);
#175=CIRCLE('',#372,15.4104418878317);
#176=CIRCLE('',#374,13.9534063542382);
#177=CIRCLE('',#375,11.0813184571);
#178=CIRCLE('',#380,14.5);
#179=CIRCLE('',#382,14.5);
#180=CIRCLE('',#384,16.);
#181=CIRCLE('',#386,16.);
#182=CIRCLE('',#388,15.);
#183=CURVE_STYLE('',#205,POSITIVE_LENGTH_MEASURE(0.18),#359);
#184=CURVE_STYLE('',#206,POSITIVE_LENGTH_MEASURE(0.18),#359);
#185=CURVE_STYLE('',#207,POSITIVE_LENGTH_MEASURE(0.18),#359);
#186=CURVE_STYLE('',#208,POSITIVE_LENGTH_MEASURE(0.18),#359);
#187=CURVE_STYLE('',#209,POSITIVE_LENGTH_MEASURE(0.18),#359);
#188=CURVE_STYLE('',#210,POSITIVE_LENGTH_MEASURE(0.18),#359);
#189=CURVE_STYLE('',#211,POSITIVE_LENGTH_MEASURE(0.18),#359);
#190=CURVE_STYLE('',#212,POSITIVE_LENGTH_MEASURE(0.18),#359);
#191=CURVE_STYLE('',#213,POSITIVE_LENGTH_MEASURE(0.18),#359);
#192=CURVE_STYLE('',#214,POSITIVE_LENGTH_MEASURE(0.18),#359);
#193=CURVE_STYLE('',#215,POSITIVE_LENGTH_MEASURE(0.18),#359);
#194=CURVE_STYLE('',#216,POSITIVE_LENGTH_MEASURE(0.18),#359);
#195=CURVE_STYLE('',#217,POSITIVE_LENGTH_MEASURE(0.7),#360);
#196=CURVE_STYLE('',#218,POSITIVE_LENGTH_MEASURE(0.7),#360);
#197=CURVE_STYLE('',#219,POSITIVE_LENGTH_MEASURE(0.7),#360);
#198=CURVE_STYLE('',#220,POSITIVE_LENGTH_MEASURE(0.7),#360);
#199=CURVE_STYLE('',#221,POSITIVE_LENGTH_MEASURE(0.7),#360);
#200=CURVE_STYLE('',#222,POSITIVE_LENGTH_MEASURE(0.7),#360);
#201=CURVE_STYLE('',#223,POSITIVE_LENGTH_MEASURE(0.7),#164);
#202=CURVE_STYLE('',#224,POSITIVE_LENGTH_MEASURE(0.7),#164);
#203=CURVE_STYLE('',#225,POSITIVE_LENGTH_MEASURE(0.7),#164);
#204=CURVE_STYLE('',#226,POSITIVE_LENGTH_MEASURE(0.7),#164);
#205=DRAUGHTING_PRE_DEFINED_CURVE_FONT('continuous');
#206=DRAUGHTING_PRE_DEFINED_CURVE_FONT('continuous');
#207=DRAUGHTING_PRE_DEFINED_CURVE_FONT('continuous');
#208=DRAUGHTING_PRE_DEFINED_CURVE_FONT('continuous');
#209=DRAUGHTING_PRE_DEFINED_CURVE_FONT('continuous');
#210=DRAUGHTING_PRE_DEFINED_CURVE_FONT('continuous');
#211=DRAUGHTING_PRE_DEFINED_CURVE_FONT('continuous');
#212=DRAUGHTING_PRE_DEFINED_CURVE_FONT('continuous');
#213=DRAUGHTING_PRE_DEFINED_CURVE_FONT('continuous');
#214=DRAUGHTING_PRE_DEFINED_CURVE_FONT('continuous');
#215=DRAUGHTING_PRE_DEFINED_CURVE_FONT('continuous');
#216=DRAUGHTING_PRE_DEFINED_CURVE_FONT('continuous');
#217=DRAUGHTING_PRE_DEFINED_CURVE_FONT('continuous');
#218=DRAUGHTING_PRE_DEFINED_CURVE_FONT('continuous');
#219=DRAUGHTING_PRE_DEFINED_CURVE_FONT('continuous');
#220=DRAUGHTING_PRE_DEFINED_CURVE_FONT('continuous');
#221=DRAUGHTING_PRE_DEFINED_CURVE_FONT('continuous');
#222=DRAUGHTING_PRE_DEFINED_CURVE_FONT('continuous');
#223=DRAUGHTING_PRE_DEFINED_CURVE_FONT('continuous');
#224=DRAUGHTING_PRE_DEFINED_CURVE_FONT('continuous');
#225=DRAUGHTING_PRE_DEFINED_CURVE_FONT('continuous');
#226=DRAUGHTING_PRE_DEFINED_CURVE_FONT('continuous');
#227=TRIMMED_CURVE('',#245,(PARAMETER_VALUE(0.)),(PARAMETER_VALUE(1.)),
 .T.,.PARAMETER.);
#228=TRIMMED_CURVE('',#246,(PARAMETER_VALUE(0.)),(PARAMETER_VALUE(1.)),
 .T.,.PARAMETER.);
#229=TRIMMED_CURVE('',#247,(PARAMETER_VALUE(0.)),(PARAMETER_VALUE(1.)),
 .T.,.PARAMETER.);
#230=TRIMMED_CURVE('',#248,(PARAMETER_VALUE(0.)),(PARAMETER_VALUE(1.)),
 .T.,.PARAMETER.);
#231=TRIMMED_CURVE('',#249,(PARAMETER_VALUE(0.)),(PARAMETER_VALUE(1.)),
 .T.,.PARAMETER.);
#232=TRIMMED_CURVE('',#250,(PARAMETER_VALUE(0.)),(PARAMETER_VALUE(1.)),
 .T.,.PARAMETER.);
#233=TRIMMED_CURVE('',#251,(PARAMETER_VALUE(0.)),(PARAMETER_VALUE(1.)),
 .T.,.PARAMETER.);
#234=TRIMMED_CURVE('',#252,(PARAMETER_VALUE(0.)),(PARAMETER_VALUE(1.)),
 .T.,.PARAMETER.);
#235=TRIMMED_CURVE('',#167,(PARAMETER_VALUE(89.9999999996213)),(
PARAMETER_VALUE(180.)),.T.,.PARAMETER.);
#236=TRIMMED_CURVE('',#168,(PARAMETER_VALUE(270.000000001082)),(
PARAMETER_VALUE(360.)),.T.,.PARAMETER.);
#237=TRIMMED_CURVE('',#169,(PARAMETER_VALUE(89.9999999996203)),(
PARAMETER_VALUE(180.)),.T.,.PARAMETER.);
#238=TRIMMED_CURVE('',#170,(PARAMETER_VALUE(270.000000001081)),(
PARAMETER_VALUE(360.)),.T.,.PARAMETER.);
#239=TRIMMED_CURVE('CUTTING EDGE LINE',#253,(PARAMETER_VALUE(0.)),(
PARAMETER_VALUE(1.)),.T.,.PARAMETER.);
#240=TRIMMED_CURVE('CUTTING EDGE LINE',#254,(PARAMETER_VALUE(0.)),(
PARAMETER_VALUE(1.)),.T.,.PARAMETER.);
#241=TRIMMED_CURVE('CUTTING EDGE LINE',#171,(PARAMETER_VALUE(180.)),(
PARAMETER_VALUE(253.2085528854)),.T.,.PARAMETER.);
#242=TRIMMED_CURVE('CUTTING EDGE LINE',#172,(PARAMETER_VALUE(81.0107006548)),
(PARAMETER_VALUE(106.791447114581)),.T.,.PARAMETER.);
#243=TRIMMED_CURVE('CUTTING EDGE LINE',#173,(PARAMETER_VALUE(253.208552885419)),
(PARAMETER_VALUE(278.9892993452)),.T.,.PARAMETER.);
#244=TRIMMED_CURVE('CUTTING EDGE LINE',#174,(PARAMETER_VALUE(106.7914471146)),
(PARAMETER_VALUE(180.)),.T.,.PARAMETER.);
#245=LINE('',#474,#255);
#246=LINE('',#475,#256);
#247=LINE('',#476,#257);
#248=LINE('',#477,#258);
#249=LINE('',#478,#259);
#250=LINE('',#479,#260);
#251=LINE('',#480,#261);
#252=LINE('',#481,#262);
#253=LINE('CUTTING EDGE LINE',#488,#263);
#254=LINE('CUTTING EDGE LINE',#489,#264);
#255=VECTOR('',#395,1.75);
#256=VECTOR('',#396,1.75);
#257=VECTOR('',#397,1.75);
#258=VECTOR('',#398,1.75);
#259=VECTOR('',#399,1.75);
#260=VECTOR('',#400,1.75);
#261=VECTOR('',#401,1.75);
#262=VECTOR('',#402,1.75);
#263=VECTOR('',#411,30.8208837756634);
#264=VECTOR('',#412,22.1626369142);
#265=INVISIBILITY((#270,#271,#272,#273,#274,#275,#276,#277,#278,#279,#280,
#281,#282,#283,#284,#285,#286,#287));
#266=PRESENTATION_LAYER_ASSIGNMENT('2','Layer 2',(#468,#470,#471,#473));
#267=PRESENTATION_LAYER_ASSIGNMENT('9','Layer 9',(#469,#472));
#268=PRESENTATION_LAYER_ASSIGNMENT('8','Layer 8',(#227,#228,#229,#230,#231,
#232,#233,#234,#235,#236,#237,#238));
#269=PRESENTATION_LAYER_ASSIGNMENT('1','Layer 1',(#486,#487,#239,#240,#241,
#242,#243,#244,#370,#371,#79,#533,#534,#378,#379,#80));
#270=STYLED_ITEM('',(#304),#468);
#271=STYLED_ITEM('',(#305),#469);
#272=STYLED_ITEM('',(#306),#470);
#273=STYLED_ITEM('',(#307),#471);
#274=STYLED_ITEM('',(#308),#472);
#275=STYLED_ITEM('',(#309),#473);
#276=STYLED_ITEM('',(#310),#227);
#277=STYLED_ITEM('',(#311),#228);
#278=STYLED_ITEM('',(#312),#229);
#279=STYLED_ITEM('',(#313),#230);
#280=STYLED_ITEM('',(#314),#231);
#281=STYLED_ITEM('',(#315),#232);
#282=STYLED_ITEM('',(#316),#233);
#283=STYLED_ITEM('',(#317),#234);
#284=STYLED_ITEM('',(#318),#235);
#285=STYLED_ITEM('',(#319),#236);
#286=STYLED_ITEM('',(#320),#237);
#287=STYLED_ITEM('',(#321),#238);
#288=STYLED_ITEM('',(#322),#486);
#289=STYLED_ITEM('',(#323),#487);
#290=STYLED_ITEM('',(#324),#239);
#291=STYLED_ITEM('',(#325),#240);
#292=STYLED_ITEM('',(#326),#241);
#293=STYLED_ITEM('',(#327),#242);
#294=STYLED_ITEM('',(#328),#243);
#295=STYLED_ITEM('',(#329),#244);
#296=STYLED_ITEM('',(#330),#370);
#297=STYLED_ITEM('',(#331),#371);
#298=STYLED_ITEM('',(#332),#79);
#299=STYLED_ITEM('',(#333),#533);
#300=STYLED_ITEM('',(#334),#534);
#301=STYLED_ITEM('',(#335),#378);
#302=STYLED_ITEM('',(#336),#379);
#303=STYLED_ITEM('',(#337),#80);
#304=PRESENTATION_STYLE_ASSIGNMENT((#338));
#305=PRESENTATION_STYLE_ASSIGNMENT((#339));
#306=PRESENTATION_STYLE_ASSIGNMENT((#340));
#307=PRESENTATION_STYLE_ASSIGNMENT((#341));
#308=PRESENTATION_STYLE_ASSIGNMENT((#342));
#309=PRESENTATION_STYLE_ASSIGNMENT((#343));
#310=PRESENTATION_STYLE_ASSIGNMENT((#183));
#311=PRESENTATION_STYLE_ASSIGNMENT((#184));
#312=PRESENTATION_STYLE_ASSIGNMENT((#185));
#313=PRESENTATION_STYLE_ASSIGNMENT((#186));
#314=PRESENTATION_STYLE_ASSIGNMENT((#187));
#315=PRESENTATION_STYLE_ASSIGNMENT((#188));
#316=PRESENTATION_STYLE_ASSIGNMENT((#189));
#317=PRESENTATION_STYLE_ASSIGNMENT((#190));
#318=PRESENTATION_STYLE_ASSIGNMENT((#191));
#319=PRESENTATION_STYLE_ASSIGNMENT((#192));
#320=PRESENTATION_STYLE_ASSIGNMENT((#193));
#321=PRESENTATION_STYLE_ASSIGNMENT((#194));
#322=PRESENTATION_STYLE_ASSIGNMENT((#344));
#323=PRESENTATION_STYLE_ASSIGNMENT((#345));
#324=PRESENTATION_STYLE_ASSIGNMENT((#195));
#325=PRESENTATION_STYLE_ASSIGNMENT((#196));
#326=PRESENTATION_STYLE_ASSIGNMENT((#197));
#327=PRESENTATION_STYLE_ASSIGNMENT((#198));
#328=PRESENTATION_STYLE_ASSIGNMENT((#199));
#329=PRESENTATION_STYLE_ASSIGNMENT((#200));
#330=PRESENTATION_STYLE_ASSIGNMENT((#201));
#331=PRESENTATION_STYLE_ASSIGNMENT((#202));
#332=PRESENTATION_STYLE_ASSIGNMENT((#69));
#333=PRESENTATION_STYLE_ASSIGNMENT((#346));
#334=PRESENTATION_STYLE_ASSIGNMENT((#347));
#335=PRESENTATION_STYLE_ASSIGNMENT((#203));
#336=PRESENTATION_STYLE_ASSIGNMENT((#204));
#337=PRESENTATION_STYLE_ASSIGNMENT((#70));
#338=POINT_STYLE('',#348,POSITIVE_LENGTH_MEASURE(3.),#358);
#339=POINT_STYLE('',#349,POSITIVE_LENGTH_MEASURE(3.),#358);
#340=POINT_STYLE('',#350,POSITIVE_LENGTH_MEASURE(3.),#358);
#341=POINT_STYLE('',#351,POSITIVE_LENGTH_MEASURE(3.),#358);
#342=POINT_STYLE('',#352,POSITIVE_LENGTH_MEASURE(3.),#358);
#343=POINT_STYLE('',#353,POSITIVE_LENGTH_MEASURE(3.),#358);
#344=POINT_STYLE('',#354,POSITIVE_LENGTH_MEASURE(3.),#164);
#345=POINT_STYLE('',#355,POSITIVE_LENGTH_MEASURE(3.),#164);
#346=POINT_STYLE('',#356,POSITIVE_LENGTH_MEASURE(3.),#164);
#347=POINT_STYLE('',#357,POSITIVE_LENGTH_MEASURE(3.),#164);
#348=PRE_DEFINED_POINT_MARKER_SYMBOL('plus');
#349=PRE_DEFINED_POINT_MARKER_SYMBOL('plus');
#350=PRE_DEFINED_POINT_MARKER_SYMBOL('plus');
#351=PRE_DEFINED_POINT_MARKER_SYMBOL('plus');
#352=PRE_DEFINED_POINT_MARKER_SYMBOL('plus');
#353=PRE_DEFINED_POINT_MARKER_SYMBOL('plus');
#354=PRE_DEFINED_POINT_MARKER_SYMBOL('plus');
#355=PRE_DEFINED_POINT_MARKER_SYMBOL('plus');
#356=PRE_DEFINED_POINT_MARKER_SYMBOL('plus');
#357=PRE_DEFINED_POINT_MARKER_SYMBOL('plus');
#358=DRAUGHTING_PRE_DEFINED_COLOUR('white');
#359=DRAUGHTING_PRE_DEFINED_COLOUR('cyan');
#360=DRAUGHTING_PRE_DEFINED_COLOUR('blue');
#361=AXIS2_PLACEMENT_3D('',#467,#393,#394);
#362=AXIS2_PLACEMENT_3D('',#482,#403,#404);
#363=AXIS2_PLACEMENT_3D('',#483,#405,#406);
#364=AXIS2_PLACEMENT_3D('',#484,#407,#408);
#365=AXIS2_PLACEMENT_3D('',#485,#409,#410);
#366=AXIS2_PLACEMENT_3D('',#490,#413,#414);
#367=AXIS2_PLACEMENT_3D('',#491,#415,#416);
#368=AXIS2_PLACEMENT_3D('',#492,#417,#418);
#369=AXIS2_PLACEMENT_3D('',#493,#419,#420);
#370=AXIS2_PLACEMENT_3D('CRP',#494,#421,#422);
#371=AXIS2_PLACEMENT_3D('CIP',#495,#423,#424);
#372=AXIS2_PLACEMENT_3D('',#496,#425,#426);
#373=AXIS2_PLACEMENT_3D('',#498,#427,#428);
#374=AXIS2_PLACEMENT_3D('',#499,#429,#430);
#375=AXIS2_PLACEMENT_3D('',#529,#431,#432);
#376=AXIS2_PLACEMENT_3D('',#531,#433,#434);
#377=AXIS2_PLACEMENT_3D('',#532,#435,#436);
#378=AXIS2_PLACEMENT_3D('MCS',#535,#437,#438);
#379=AXIS2_PLACEMENT_3D('PCS',#536,#439,#440);
#380=AXIS2_PLACEMENT_3D('',#537,#441,#442);
#381=AXIS2_PLACEMENT_3D('',#539,#443,#444);
#382=AXIS2_PLACEMENT_3D('',#540,#445,#446);
#383=AXIS2_PLACEMENT_3D('',#542,#447,#448);
#384=AXIS2_PLACEMENT_3D('',#543,#449,#450);
#385=AXIS2_PLACEMENT_3D('',#545,#451,#452);
#386=AXIS2_PLACEMENT_3D('',#546,#453,#454);
#387=AXIS2_PLACEMENT_3D('',#548,#455,#456);
#388=AXIS2_PLACEMENT_3D('',#549,#457,#458);
#389=AXIS2_PLACEMENT_3D('',#551,#459,#460);
#390=AXIS2_PLACEMENT_3D('',#552,#461,#462);
#391=AXIS2_PLACEMENT_3D('',#553,#463,#464);
#392=AXIS2_PLACEMENT_3D('',#554,#465,#466);
#393=DIRECTION('',(0.,0.,1.));
#394=DIRECTION('',(1.,0.,0.));
#395=DIRECTION('',(1.,0.,0.));
#396=DIRECTION('',(6.62631854148848E-12,1.,0.));
#397=DIRECTION('',(1.89126175038317E-11,-1.,0.));
#398=DIRECTION('',(-1.,9.14285714285714E-16,0.));
#399=DIRECTION('',(1.,0.,0.));
#400=DIRECTION('',(6.62631854148848E-12,1.,0.));
#401=DIRECTION('',(1.8904497015423E-11,-1.,0.));
#402=DIRECTION('',(-1.,9.14285714285715E-16,0.));
#403=DIRECTION('',(0.,0.,1.));
#404=DIRECTION('',(1.,0.,0.));
#405=DIRECTION('',(0.,0.,1.));
#406=DIRECTION('',(1.,0.,0.));
#407=DIRECTION('',(0.,0.,1.));
#408=DIRECTION('',(1.,0.,0.));
#409=DIRECTION('',(0.,0.,1.));
#410=DIRECTION('',(1.,0.,0.));
#411=DIRECTION('',(-1.,0.,0.));
#412=DIRECTION('',(1.,0.,0.));
#413=DIRECTION('',(0.,-1.,0.));
#414=DIRECTION('',(0.,0.,1.));
#415=DIRECTION('',(0.,-1.,0.));
#416=DIRECTION('',(0.,0.,1.));
#417=DIRECTION('',(0.,-1.,0.));
#418=DIRECTION('',(0.,0.,1.));
#419=DIRECTION('',(0.,-1.,0.));
#420=DIRECTION('',(0.,0.,1.));
#421=DIRECTION('',(0.,0.,1.));
#422=DIRECTION('',(1.,0.,0.));
#423=DIRECTION('',(0.,0.,1.));
#424=DIRECTION('',(1.,0.,0.));
#425=DIRECTION('',(0.,0.,-1.));
#426=DIRECTION('',(-1.,0.,0.));
#427=DIRECTION('',(0.,0.,1.));
#428=DIRECTION('',(1.,0.,0.));
#429=DIRECTION('',(0.,0.,-1.));
#430=DIRECTION('',(-1.,0.,0.));
#431=DIRECTION('',(0.,0.,-1.));
#432=DIRECTION('',(-1.,0.,0.));
#433=DIRECTION('',(0.,0.,-1.));
#434=DIRECTION('',(-1.,0.,0.));
#435=DIRECTION('',(0.,0.,-1.));
#436=DIRECTION('',(-1.,0.,0.));
#437=DIRECTION('',(0.,0.,1.));
#438=DIRECTION('',(1.,0.,0.));
#439=DIRECTION('',(0.,0.,1.));
#440=DIRECTION('',(1.,0.,0.));
#441=DIRECTION('',(0.,0.,-1.));
#442=DIRECTION('',(-1.,0.,0.));
#443=DIRECTION('',(0.,0.,1.));
#444=DIRECTION('',(1.,0.,0.));
#445=DIRECTION('',(0.,0.,-1.));
#446=DIRECTION('',(-1.,0.,0.));
#447=DIRECTION('',(0.,0.,-1.));
#448=DIRECTION('',(-1.,0.,0.));
#449=DIRECTION('',(0.,0.,-1.));
#450=DIRECTION('',(-1.,0.,0.));
#451=DIRECTION('',(0.,0.,-1.));
#452=DIRECTION('',(-1.,0.,0.));
#453=DIRECTION('',(0.,0.,-1.));
#454=DIRECTION('',(-1.,0.,0.));
#455=DIRECTION('',(0.,0.,-1.));
#456=DIRECTION('',(-1.,0.,0.));
#457=DIRECTION('',(0.,0.,-1.));
#458=DIRECTION('',(-1.,0.,0.));
#459=DIRECTION('',(0.,0.,-1.));
#460=DIRECTION('',(-1.,0.,0.));
#461=DIRECTION('',(0.,0.,-1.));
#462=DIRECTION('',(-1.,0.,0.));
#463=DIRECTION('',(0.,0.,1.));
#464=DIRECTION('',(1.,0.,0.));
#465=DIRECTION('',(0.,0.,1.));
#466=DIRECTION('',(1.,0.,0.));
#467=CARTESIAN_POINT('',(0.,0.,0.));
#468=CARTESIAN_POINT('',(0.,0.,0.));
#469=CARTESIAN_POINT('',(0.,0.,0.));
#470=CARTESIAN_POINT('',(0.,0.,0.));
#471=CARTESIAN_POINT('',(0.,0.,0.));
#472=CARTESIAN_POINT('',(0.,0.,0.));
#473=CARTESIAN_POINT('',(0.,0.,0.));
#474=CARTESIAN_POINT('',(122.249999999978,3.30849E-11,0.));
#475=CARTESIAN_POINT('',(123.999999999978,3.30849E-11,0.));
#476=CARTESIAN_POINT('',(124.,8.E-16,0.));
#477=CARTESIAN_POINT('',(125.75,-8.E-16,0.));
#478=CARTESIAN_POINT('',(274.749999999978,3.31435E-11,0.));
#479=CARTESIAN_POINT('',(276.499999999978,3.31435E-11,0.));
#480=CARTESIAN_POINT('',(276.5,5.94E-14,0.));
#481=CARTESIAN_POINT('',(278.25,5.78E-14,0.));
#482=CARTESIAN_POINT('',(123.999999999978,3.30849E-11,0.));
#483=CARTESIAN_POINT('',(124.,8.E-16,0.));
#484=CARTESIAN_POINT('',(276.499999999978,3.31435E-11,0.));
#485=CARTESIAN_POINT('',(276.5,5.94E-14,0.));
#486=CARTESIAN_POINT('',(-16.,0.,-300.));
#487=CARTESIAN_POINT('',(0.,0.,-300.));
#488=CARTESIAN_POINT('',(15.4104418878317,0.,-276.499999999985));
#489=CARTESIAN_POINT('',(-11.0813184571,0.,-300.));
#490=CARTESIAN_POINT('',(11.0813184571,0.,-297.));
#491=CARTESIAN_POINT('',(32.,0.,-284.));
#492=CARTESIAN_POINT('',(-32.,0.,-284.));
#493=CARTESIAN_POINT('',(-11.0813184571,0.,-297.));
#494=CARTESIAN_POINT('',(-16.,0.,-300.));
#495=CARTESIAN_POINT('',(0.,0.,-300.));
#496=CARTESIAN_POINT('',(0.,0.,-276.499999999969));
#497=CARTESIAN_POINT('',(-15.4104418878317,0.,-276.499999999969));
#498=CARTESIAN_POINT('',(0.,15.4104418878317,-276.499999999985));
#499=CARTESIAN_POINT('',(0.,0.,-297.866666666667));
#500=CARTESIAN_POINT('',(-13.9534063542382,0.,-297.866666666667));
#501=CARTESIAN_POINT('',(-13.9534063542155,0.,-297.86666666666));
#502=CARTESIAN_POINT('',(-13.9534063542155,27.906812708431,-297.86666666666));
#503=CARTESIAN_POINT('',(13.9534063542155,27.906812708431,-297.86666666666));
#504=CARTESIAN_POINT('',(13.9534063542155,0.,-297.86666666666));
#505=CARTESIAN_POINT('',(13.9534063542155,-27.906812708431,-297.86666666666));
#506=CARTESIAN_POINT('',(-13.9534063542155,-27.906812708431,-297.86666666666));
#507=CARTESIAN_POINT('',(-13.9534063542155,0.,-297.86666666666));
#508=CARTESIAN_POINT('',(-16.0509562501221,0.,-290.915496278568));
#509=CARTESIAN_POINT('',(-16.0509562501221,32.1019125002442,-290.915496278568));
#510=CARTESIAN_POINT('',(16.0509562501221,32.1019125002442,-290.915496278568));
#511=CARTESIAN_POINT('',(16.0509562501221,0.,-290.915496278568));
#512=CARTESIAN_POINT('',(16.0509562501221,-32.1019125002442,-290.915496278568));
#513=CARTESIAN_POINT('',(-16.0509562501221,-32.1019125002442,-290.915496278568));
#514=CARTESIAN_POINT('',(-16.0509562501221,0.,-290.915496278568));
#515=CARTESIAN_POINT('',(-16.5449340190363,0.,-283.671569767764));
#516=CARTESIAN_POINT('',(-16.5449340190363,33.0898680380726,-283.671569767764));
#517=CARTESIAN_POINT('',(16.5449340190363,33.0898680380726,-283.671569767764));
#518=CARTESIAN_POINT('',(16.5449340190363,0.,-283.671569767764));
#519=CARTESIAN_POINT('',(16.5449340190363,-33.0898680380726,-283.671569767764));
#520=CARTESIAN_POINT('',(-16.5449340190363,-33.0898680380726,-283.671569767764));
#521=CARTESIAN_POINT('',(-16.5449340190363,0.,-283.671569767764));
#522=CARTESIAN_POINT('',(-15.4104418878317,0.,-276.499999999969));
#523=CARTESIAN_POINT('',(-15.4104418878317,30.8208837756634,-276.499999999969));
#524=CARTESIAN_POINT('',(15.4104418878317,30.8208837756634,-276.499999999969));
#525=CARTESIAN_POINT('',(15.4104418878317,0.,-276.499999999969));
#526=CARTESIAN_POINT('',(15.4104418878317,-30.8208837756634,-276.499999999969));
#527=CARTESIAN_POINT('',(-15.4104418878317,-30.8208837756634,-276.499999999969));
#528=CARTESIAN_POINT('',(-15.4104418878317,0.,-276.499999999969));
#529=CARTESIAN_POINT('',(0.,0.,-300.));
#530=CARTESIAN_POINT('',(-11.0813184571,0.,-300.));
#531=CARTESIAN_POINT('',(0.,0.,-297.));
#532=CARTESIAN_POINT('',(0.,0.,-300.));
#533=CARTESIAN_POINT('',(0.,0.,0.));
#534=CARTESIAN_POINT('',(0.,0.,-124.));
#535=CARTESIAN_POINT('',(0.,0.,-124.));
#536=CARTESIAN_POINT('',(0.,0.,0.));
#537=CARTESIAN_POINT('',(0.,0.,-276.5));
#538=CARTESIAN_POINT('',(-14.5,0.,-276.5));
#539=CARTESIAN_POINT('',(0.,14.5,-276.5));
#540=CARTESIAN_POINT('',(0.,0.,-125.9364916731));
#541=CARTESIAN_POINT('',(-14.5,0.,-125.9364916731));
#542=CARTESIAN_POINT('',(0.,0.,-305.));
#543=CARTESIAN_POINT('',(0.,0.,-124.));
#544=CARTESIAN_POINT('',(-16.,0.,-124.));
#545=CARTESIAN_POINT('',(0.,0.,-125.9364916731));
#546=CARTESIAN_POINT('',(0.,0.,-1.));
#547=CARTESIAN_POINT('',(-16.,0.,-1.));
#548=CARTESIAN_POINT('',(0.,0.,-305.));
#549=CARTESIAN_POINT('',(0.,0.,0.));
#550=CARTESIAN_POINT('',(-15.,0.,0.));
#551=CARTESIAN_POINT('',(0.,0.,0.));
#552=CARTESIAN_POINT('',(0.,0.,0.));
#553=CARTESIAN_POINT('',(0.,0.,0.));
#554=CARTESIAN_POINT('',(0.,0.,0.));
#555=MECHANICAL_DESIGN_GEOMETRIC_PRESENTATION_REPRESENTATION('',(#270,#271,
#272,#273,#274,#275,#276,#277,#278,#279,#280,#281,#282,#283,#284,#285,#286,
#287),#558);
#556=MECHANICAL_DESIGN_GEOMETRIC_PRESENTATION_REPRESENTATION('',(#288,#289,
#290,#291,#292,#293,#294,#295,#296,#297,#298),#559);
#557=MECHANICAL_DESIGN_GEOMETRIC_PRESENTATION_REPRESENTATION('',(#299,#300,
#301,#302,#303),#560);
#558=(
GEOMETRIC_REPRESENTATION_CONTEXT(3)
GLOBAL_UNCERTAINTY_ASSIGNED_CONTEXT((#561))
GLOBAL_UNIT_ASSIGNED_CONTEXT((#569,#565,#564))
REPRESENTATION_CONTEXT('7820086_7801427','TOP_LEVEL_ASSEMBLY_PART')
);
#559=(
GEOMETRIC_REPRESENTATION_CONTEXT(3)
GLOBAL_UNCERTAINTY_ASSIGNED_CONTEXT((#562))
GLOBAL_UNIT_ASSIGNED_CONTEXT((#569,#565,#564))
REPRESENTATION_CONTEXT('CUT_7820086_7801427','COMPONENT_PART')
);
#560=(
GEOMETRIC_REPRESENTATION_CONTEXT(3)
GLOBAL_UNCERTAINTY_ASSIGNED_CONTEXT((#563))
GLOBAL_UNIT_ASSIGNED_CONTEXT((#569,#565,#564))
REPRESENTATION_CONTEXT('NOCUT_7820086_7801427','COMPONENT_PART')
);
#561=UNCERTAINTY_MEASURE_WITH_UNIT(LENGTH_MEASURE(2.E-5),#569,
'DISTANCE_ACCURACY_VALUE','Maximum Tolerance applied to model');
#562=UNCERTAINTY_MEASURE_WITH_UNIT(LENGTH_MEASURE(0.0254),#569,
'DISTANCE_ACCURACY_VALUE','Maximum Tolerance applied to model');
#563=UNCERTAINTY_MEASURE_WITH_UNIT(LENGTH_MEASURE(2.E-5),#569,
'DISTANCE_ACCURACY_VALUE','Maximum Tolerance applied to model');
#564=(
NAMED_UNIT(*)
SI_UNIT($,.STERADIAN.)
SOLID_ANGLE_UNIT()
);
#565=(
CONVERSION_BASED_UNIT('DEGREE',#567)
NAMED_UNIT(#566)
PLANE_ANGLE_UNIT()
);
#566=DIMENSIONAL_EXPONENTS(0.,0.,0.,0.,0.,0.,0.);
#567=PLANE_ANGLE_MEASURE_WITH_UNIT(PLANE_ANGLE_MEASURE(0.0174532925),#568);
#568=(
NAMED_UNIT(*)
PLANE_ANGLE_UNIT()
SI_UNIT($,.RADIAN.)
);
#569=(
LENGTH_UNIT()
NAMED_UNIT(*)
SI_UNIT(.MILLI.,.METRE.)
);
ENDSEC;
END-ISO-10303-21;
