ISO-10303-21;
HEADER;
/* Generated by software containing ST-Developer
 * from STEP Tools, Inc. (www.steptools.com) 
 */
/* OPTION: using custom schema-name function */

FILE_DESCRIPTION(
/* description */ (''),
/* implementation_level */ '2;1');

FILE_NAME(
/* name */ '7820081_7801421.stp',
/* time_stamp */ '2020-01-10T14:53:44+09:00',
/* author */ (''),
/* organization */ (''),
/* preprocessor_version */ 'ST-DEVELOPER v16.7',
/* originating_system */ 'SIEMENS PLM Software NX 12.0',
/* authorisation */ '');

FILE_SCHEMA (('AUTOMOTIVE_DESIGN { 1 0 10303 214 3 1 1 1 }'));
ENDSEC;

DATA;
#10=CONTEXT_DEPENDENT_SHAPE_REPRESENTATION(#14,#38);
#11=CONTEXT_DEPENDENT_SHAPE_REPRESENTATION(#15,#39);
#12=NEXT_ASSEMBLY_USAGE_OCCURRENCE('1001',' ','CUT_7820081_7801421',#42,
#41,$);
#13=NEXT_ASSEMBLY_USAGE_OCCURRENCE('1002',' ','NOCUT_7820081_7801421',#42,
#40,$);
#14=(
REPRESENTATION_RELATIONSHIP(' ',' ',#61,#62)
REPRESENTATION_RELATIONSHIP_WITH_TRANSFORMATION(#16)
SHAPE_REPRESENTATION_RELATIONSHIP()
);
#15=(
REPRESENTATION_RELATIONSHIP(' ',' ',#60,#62)
REPRESENTATION_RELATIONSHIP_WITH_TRANSFORMATION(#17)
SHAPE_REPRESENTATION_RELATIONSHIP()
);
#16=ITEM_DEFINED_TRANSFORMATION(' ',' ',#320,#348);
#17=ITEM_DEFINED_TRANSFORMATION(' ',' ',#320,#349);
#18=CONSTRUCTIVE_GEOMETRY_REPRESENTATION_RELATIONSHIP(
'supplemental geometry','',#60,#20);
#19=CONSTRUCTIVE_GEOMETRY_REPRESENTATION_RELATIONSHIP(
'supplemental geometry','',#61,#21);
#20=CONSTRUCTIVE_GEOMETRY_REPRESENTATION('supplemental geometry',(#335,
#336),#503);
#21=CONSTRUCTIVE_GEOMETRY_REPRESENTATION('supplemental geometry',(#327,
#328),#502);
#22=GEOMETRICALLY_BOUNDED_WIREFRAME_SHAPE_REPRESENTATION(
'NOCUT_7820081_7801421-None',(#63),#503);
#23=GEOMETRICALLY_BOUNDED_WIREFRAME_SHAPE_REPRESENTATION(
'CUT_7820081_7801421-None',(#64),#502);
#24=GEOMETRICALLY_BOUNDED_WIREFRAME_SHAPE_REPRESENTATION(
'7820081_7801421-None',(#65),#501);
#25=SHAPE_REPRESENTATION_RELATIONSHIP('None',
'relationship between NOCUT_7820081_7801421-None and NOCUT_7820081_780
1421-None',#60,#30);
#26=SHAPE_REPRESENTATION_RELATIONSHIP('None',
'relationship between NOCUT_7820081_7801421-None and NOCUT_7820081_780
1421-None',#60,#22);
#27=SHAPE_REPRESENTATION_RELATIONSHIP('None',
'relationship between CUT_7820081_7801421-None and CUT_7820081_7801421
-None',#61,#31);
#28=SHAPE_REPRESENTATION_RELATIONSHIP('None',
'relationship between CUT_7820081_7801421-None and CUT_7820081_7801421
-None',#61,#23);
#29=SHAPE_REPRESENTATION_RELATIONSHIP('None',
'relationship between 7820081_7801421-None and 7820081_7801421-None',#62,
#24);
#30=ADVANCED_BREP_SHAPE_REPRESENTATION('NOCUT_7820081_7801421-None',(#80),
#503);
#31=ADVANCED_BREP_SHAPE_REPRESENTATION('CUT_7820081_7801421-None',(#79),
#502);
#32=SHAPE_DEFINITION_REPRESENTATION(#35,#60);
#33=SHAPE_DEFINITION_REPRESENTATION(#36,#61);
#34=SHAPE_DEFINITION_REPRESENTATION(#37,#62);
#35=PRODUCT_DEFINITION_SHAPE('','',#40);
#36=PRODUCT_DEFINITION_SHAPE('','',#41);
#37=PRODUCT_DEFINITION_SHAPE('','',#42);
#38=PRODUCT_DEFINITION_SHAPE(' ','NAUO PRDDFN',#12);
#39=PRODUCT_DEFINITION_SHAPE(' ','NAUO PRDDFN',#13);
#40=PRODUCT_DEFINITION(' ','',#46,#43);
#41=PRODUCT_DEFINITION(' ','',#47,#44);
#42=PRODUCT_DEFINITION(' ','',#48,#45);
#43=PRODUCT_DEFINITION_CONTEXT('part definition',#59,'design');
#44=PRODUCT_DEFINITION_CONTEXT('part definition',#59,'design');
#45=PRODUCT_DEFINITION_CONTEXT('part definition',#59,'design');
#46=PRODUCT_DEFINITION_FORMATION_WITH_SPECIFIED_SOURCE(' ',' ',#52,
 .NOT_KNOWN.);
#47=PRODUCT_DEFINITION_FORMATION_WITH_SPECIFIED_SOURCE(' ',' ',#53,
 .NOT_KNOWN.);
#48=PRODUCT_DEFINITION_FORMATION_WITH_SPECIFIED_SOURCE(' ',' ',#54,
 .NOT_KNOWN.);
#49=PRODUCT_RELATED_PRODUCT_CATEGORY('part','',(#52));
#50=PRODUCT_RELATED_PRODUCT_CATEGORY('part','',(#53));
#51=PRODUCT_RELATED_PRODUCT_CATEGORY('part','',(#54));
#52=PRODUCT('NOCUT_7820081_7801421','NOCUT_7820081_7801421',' ',(#55));
#53=PRODUCT('CUT_7820081_7801421','CUT_7820081_7801421',' ',(#56));
#54=PRODUCT('7820081_7801421','7820081_7801421',' ',(#57));
#55=PRODUCT_CONTEXT(' ',#59,'mechanical');
#56=PRODUCT_CONTEXT(' ',#59,'mechanical');
#57=PRODUCT_CONTEXT(' ',#59,'mechanical');
#58=APPLICATION_PROTOCOL_DEFINITION('international standard',
'automotive_design',2010,#59);
#59=APPLICATION_CONTEXT(
'core data for automotive mechanical design processes');
#60=SHAPE_REPRESENTATION('NOCUT_7820081_7801421-None',(#320),#503);
#61=SHAPE_REPRESENTATION('CUT_7820081_7801421-None',(#320),#502);
#62=SHAPE_REPRESENTATION('7820081_7801421-None',(#320,#348,#349),#501);
#63=GEOMETRIC_CURVE_SET('None',(#476,#477));
#64=GEOMETRIC_CURVE_SET('None',(#429,#430,#219,#220,#221,#222,#223,#224));
#65=GEOMETRIC_CURVE_SET('None',(#417,#418,#419,#420,#421,#422,#213,#214,
#215,#216,#217,#218));
#66=CONICAL_SURFACE('',#346,3.99999999999993,45.);
#67=CYLINDRICAL_SURFACE('',#340,4.49999999999999);
#68=CYLINDRICAL_SURFACE('',#344,4.99999999999995);
#69=SURFACE_STYLE_USAGE(.BOTH.,#71);
#70=SURFACE_STYLE_USAGE(.BOTH.,#72);
#71=SURFACE_SIDE_STYLE('',(#73));
#72=SURFACE_SIDE_STYLE('',(#74));
#73=SURFACE_STYLE_FILL_AREA(#75);
#74=SURFACE_STYLE_FILL_AREA(#76);
#75=FILL_AREA_STYLE('',(#77));
#76=FILL_AREA_STYLE('',(#78));
#77=FILL_AREA_STYLE_COLOUR('',#165);
#78=FILL_AREA_STYLE_COLOUR('',#166);
#79=MANIFOLD_SOLID_BREP('',#81);
#80=MANIFOLD_SOLID_BREP('',#82);
#81=CLOSED_SHELL('',(#98,#99,#100,#101));
#82=CLOSED_SHELL('',(#102,#103,#104,#105,#106,#107));
#83=TOROIDAL_SURFACE('',#333,3.41640786499996,1.);
#84=TOROIDAL_SURFACE('',#342,6.49999999999998,2.00000000000001);
#85=(
BOUNDED_SURFACE()
B_SPLINE_SURFACE(3,3,((#444,#445,#446,#447,#448,#449,#450),(#451,#452,#453,
#454,#455,#456,#457),(#458,#459,#460,#461,#462,#463,#464),(#465,#466,#467,
#468,#469,#470,#471)),.UNSPECIFIED.,.F.,.T.,.F.)
B_SPLINE_SURFACE_WITH_KNOTS((4,4),(1,3,3,3,1),(0.,1.),(-0.5,0.,0.5,1.,1.5),
 .UNSPECIFIED.)
GEOMETRIC_REPRESENTATION_ITEM()
RATIONAL_B_SPLINE_SURFACE(((1.,0.333333333333333,0.333333333333333,1.,0.333333333333333,
0.333333333333333,1.),(0.977140694747463,0.325713564915821,0.325713564915821,
0.977140694747463,0.325713564915821,0.325713564915821,0.977140694747463),
(0.977140694747463,0.325713564915821,0.325713564915821,0.977140694747463,
0.325713564915821,0.325713564915821,0.977140694747463),(1.,0.333333333333333,
0.333333333333333,1.,0.333333333333333,0.333333333333333,1.)))
REPRESENTATION_ITEM('')
SURFACE()
);
#86=FACE_BOUND('',#117,.T.);
#87=FACE_BOUND('',#118,.T.);
#88=FACE_BOUND('',#119,.T.);
#89=FACE_BOUND('',#120,.T.);
#90=FACE_BOUND('',#123,.T.);
#91=FACE_BOUND('',#124,.T.);
#92=FACE_BOUND('',#125,.T.);
#93=FACE_BOUND('',#126,.T.);
#94=FACE_BOUND('',#127,.T.);
#95=FACE_BOUND('',#128,.T.);
#96=FACE_BOUND('',#129,.T.);
#97=FACE_BOUND('',#130,.T.);
#98=ADVANCED_FACE('',(#112),#108,.T.);
#99=ADVANCED_FACE('',(#86,#87),#85,.T.);
#100=ADVANCED_FACE('',(#88,#89),#83,.T.);
#101=ADVANCED_FACE('',(#113),#109,.T.);
#102=ADVANCED_FACE('',(#114),#110,.T.);
#103=ADVANCED_FACE('',(#90,#91),#67,.T.);
#104=ADVANCED_FACE('',(#92,#93),#84,.F.);
#105=ADVANCED_FACE('',(#94,#95),#68,.T.);
#106=ADVANCED_FACE('',(#96,#97),#66,.T.);
#107=ADVANCED_FACE('',(#115),#111,.T.);
#108=PLANE('',#330);
#109=PLANE('',#334);
#110=PLANE('',#338);
#111=PLANE('',#347);
#112=FACE_OUTER_BOUND('',#116,.T.);
#113=FACE_OUTER_BOUND('',#121,.T.);
#114=FACE_OUTER_BOUND('',#122,.T.);
#115=FACE_OUTER_BOUND('',#131,.T.);
#116=EDGE_LOOP('',(#132));
#117=EDGE_LOOP('',(#133));
#118=EDGE_LOOP('',(#134));
#119=EDGE_LOOP('',(#135));
#120=EDGE_LOOP('',(#136));
#121=EDGE_LOOP('',(#137));
#122=EDGE_LOOP('',(#138));
#123=EDGE_LOOP('',(#139));
#124=EDGE_LOOP('',(#140));
#125=EDGE_LOOP('',(#141));
#126=EDGE_LOOP('',(#142));
#127=EDGE_LOOP('',(#143));
#128=EDGE_LOOP('',(#144));
#129=EDGE_LOOP('',(#145));
#130=EDGE_LOOP('',(#146));
#131=EDGE_LOOP('',(#147));
#132=ORIENTED_EDGE('',*,*,#156,.F.);
#133=ORIENTED_EDGE('',*,*,#156,.T.);
#134=ORIENTED_EDGE('',*,*,#157,.F.);
#135=ORIENTED_EDGE('',*,*,#157,.T.);
#136=ORIENTED_EDGE('',*,*,#158,.F.);
#137=ORIENTED_EDGE('',*,*,#158,.T.);
#138=ORIENTED_EDGE('',*,*,#159,.F.);
#139=ORIENTED_EDGE('',*,*,#159,.T.);
#140=ORIENTED_EDGE('',*,*,#160,.F.);
#141=ORIENTED_EDGE('',*,*,#160,.T.);
#142=ORIENTED_EDGE('',*,*,#161,.F.);
#143=ORIENTED_EDGE('',*,*,#161,.T.);
#144=ORIENTED_EDGE('',*,*,#162,.F.);
#145=ORIENTED_EDGE('',*,*,#162,.T.);
#146=ORIENTED_EDGE('',*,*,#163,.F.);
#147=ORIENTED_EDGE('',*,*,#163,.T.);
#148=VERTEX_POINT('',#440);
#149=VERTEX_POINT('',#443);
#150=VERTEX_POINT('',#473);
#151=VERTEX_POINT('',#481);
#152=VERTEX_POINT('',#484);
#153=VERTEX_POINT('',#487);
#154=VERTEX_POINT('',#490);
#155=VERTEX_POINT('',#493);
#156=EDGE_CURVE('',#148,#148,#173,.T.);
#157=EDGE_CURVE('',#149,#149,#174,.T.);
#158=EDGE_CURVE('',#150,#150,#175,.T.);
#159=EDGE_CURVE('',#151,#151,#176,.T.);
#160=EDGE_CURVE('',#152,#152,#177,.T.);
#161=EDGE_CURVE('',#153,#153,#178,.T.);
#162=EDGE_CURVE('',#154,#154,#179,.T.);
#163=EDGE_CURVE('',#155,#155,#180,.T.);
#164=COLOUR_RGB('Medium Maroon',0.6,0.4,0.4);
#165=COLOUR_RGB('Light Gray',0.8,0.8,0.8);
#166=COLOUR_RGB('Medium Gray',0.490196078431373,0.490196078431373,0.490196078431373);
#167=CIRCLE('',#321,1.75);
#168=CIRCLE('',#322,1.75);
#169=CIRCLE('CUTTING EDGE LINE',#323,1.);
#170=CIRCLE('CUTTING EDGE LINE',#324,14.9999999999999);
#171=CIRCLE('CUTTING EDGE LINE',#325,14.9999999999999);
#172=CIRCLE('CUTTING EDGE LINE',#326,1.);
#173=CIRCLE('',#329,4.58595214582352);
#174=CIRCLE('',#331,4.37472271249997);
#175=CIRCLE('',#332,3.41640786501171);
#176=CIRCLE('',#337,4.5);
#177=CIRCLE('',#339,4.49999999999997);
#178=CIRCLE('',#341,4.99999999999997);
#179=CIRCLE('',#343,4.99999999999993);
#180=CIRCLE('',#345,3.99999999999993);
#181=CURVE_STYLE('',#197,POSITIVE_LENGTH_MEASURE(0.18),#318);
#182=CURVE_STYLE('',#198,POSITIVE_LENGTH_MEASURE(0.18),#318);
#183=CURVE_STYLE('',#199,POSITIVE_LENGTH_MEASURE(0.18),#318);
#184=CURVE_STYLE('',#200,POSITIVE_LENGTH_MEASURE(0.18),#318);
#185=CURVE_STYLE('',#201,POSITIVE_LENGTH_MEASURE(0.18),#318);
#186=CURVE_STYLE('',#202,POSITIVE_LENGTH_MEASURE(0.18),#318);
#187=CURVE_STYLE('',#203,POSITIVE_LENGTH_MEASURE(0.7),#319);
#188=CURVE_STYLE('',#204,POSITIVE_LENGTH_MEASURE(0.7),#319);
#189=CURVE_STYLE('',#205,POSITIVE_LENGTH_MEASURE(0.7),#319);
#190=CURVE_STYLE('',#206,POSITIVE_LENGTH_MEASURE(0.7),#319);
#191=CURVE_STYLE('',#207,POSITIVE_LENGTH_MEASURE(0.7),#319);
#192=CURVE_STYLE('',#208,POSITIVE_LENGTH_MEASURE(0.7),#319);
#193=CURVE_STYLE('',#209,POSITIVE_LENGTH_MEASURE(0.7),#164);
#194=CURVE_STYLE('',#210,POSITIVE_LENGTH_MEASURE(0.7),#164);
#195=CURVE_STYLE('',#211,POSITIVE_LENGTH_MEASURE(0.7),#164);
#196=CURVE_STYLE('',#212,POSITIVE_LENGTH_MEASURE(0.7),#164);
#197=DRAUGHTING_PRE_DEFINED_CURVE_FONT('continuous');
#198=DRAUGHTING_PRE_DEFINED_CURVE_FONT('continuous');
#199=DRAUGHTING_PRE_DEFINED_CURVE_FONT('continuous');
#200=DRAUGHTING_PRE_DEFINED_CURVE_FONT('continuous');
#201=DRAUGHTING_PRE_DEFINED_CURVE_FONT('continuous');
#202=DRAUGHTING_PRE_DEFINED_CURVE_FONT('continuous');
#203=DRAUGHTING_PRE_DEFINED_CURVE_FONT('continuous');
#204=DRAUGHTING_PRE_DEFINED_CURVE_FONT('continuous');
#205=DRAUGHTING_PRE_DEFINED_CURVE_FONT('continuous');
#206=DRAUGHTING_PRE_DEFINED_CURVE_FONT('continuous');
#207=DRAUGHTING_PRE_DEFINED_CURVE_FONT('continuous');
#208=DRAUGHTING_PRE_DEFINED_CURVE_FONT('continuous');
#209=DRAUGHTING_PRE_DEFINED_CURVE_FONT('continuous');
#210=DRAUGHTING_PRE_DEFINED_CURVE_FONT('continuous');
#211=DRAUGHTING_PRE_DEFINED_CURVE_FONT('continuous');
#212=DRAUGHTING_PRE_DEFINED_CURVE_FONT('continuous');
#213=TRIMMED_CURVE('',#225,(PARAMETER_VALUE(0.)),(PARAMETER_VALUE(1.)),
 .T.,.PARAMETER.);
#214=TRIMMED_CURVE('',#226,(PARAMETER_VALUE(0.)),(PARAMETER_VALUE(1.)),
 .T.,.PARAMETER.);
#215=TRIMMED_CURVE('',#227,(PARAMETER_VALUE(0.)),(PARAMETER_VALUE(1.)),
 .T.,.PARAMETER.);
#216=TRIMMED_CURVE('',#228,(PARAMETER_VALUE(0.)),(PARAMETER_VALUE(1.)),
 .T.,.PARAMETER.);
#217=TRIMMED_CURVE('',#167,(PARAMETER_VALUE(89.9999999996213)),(
PARAMETER_VALUE(180.)),.T.,.PARAMETER.);
#218=TRIMMED_CURVE('',#168,(PARAMETER_VALUE(270.000000001082)),(
PARAMETER_VALUE(360.)),.T.,.PARAMETER.);
#219=TRIMMED_CURVE('CUTTING EDGE LINE',#229,(PARAMETER_VALUE(0.)),(
PARAMETER_VALUE(1.)),.T.,.PARAMETER.);
#220=TRIMMED_CURVE('CUTTING EDGE LINE',#230,(PARAMETER_VALUE(0.)),(
PARAMETER_VALUE(1.)),.T.,.PARAMETER.);
#221=TRIMMED_CURVE('CUTTING EDGE LINE',#169,(PARAMETER_VALUE(180.000000000673)),
(PARAMETER_VALUE(253.398450401)),.T.,.PARAMETER.);
#222=TRIMMED_CURVE('CUTTING EDGE LINE',#170,(PARAMETER_VALUE(76.506601178401)),
(PARAMETER_VALUE(106.601549599075)),.T.,.PARAMETER.);
#223=TRIMMED_CURVE('CUTTING EDGE LINE',#171,(PARAMETER_VALUE(253.398450400925)),
(PARAMETER_VALUE(283.493398821599)),.T.,.PARAMETER.);
#224=TRIMMED_CURVE('CUTTING EDGE LINE',#172,(PARAMETER_VALUE(106.601549599)),
(PARAMETER_VALUE(179.999999999327)),.T.,.PARAMETER.);
#225=LINE('',#423,#231);
#226=LINE('',#424,#232);
#227=LINE('',#425,#233);
#228=LINE('',#426,#234);
#229=LINE('CUTTING EDGE LINE',#431,#235);
#230=LINE('CUTTING EDGE LINE',#432,#236);
#231=VECTOR('',#352,1.74999999999999);
#232=VECTOR('',#353,1.75);
#233=VECTOR('',#354,1.75);
#234=VECTOR('',#355,1.74999999999999);
#235=VECTOR('',#360,6.83281573002342);
#236=VECTOR('',#361,9.17190429164704);
#237=INVISIBILITY((#241,#242,#243,#244,#245,#246,#247,#248,#249,#250,#251,
#252));
#238=PRESENTATION_LAYER_ASSIGNMENT('2','Layer 2',(#417,#419,#420,#422));
#239=PRESENTATION_LAYER_ASSIGNMENT('9','Layer 9',(#418,#421));
#240=PRESENTATION_LAYER_ASSIGNMENT('1','Layer 1',(#213,#214,#215,#216,#217,
#218,#429,#430,#219,#220,#221,#222,#223,#224,#327,#328,#79,#476,#477,#335,
#336,#80));
#241=STYLED_ITEM('',(#269),#417);
#242=STYLED_ITEM('',(#270),#418);
#243=STYLED_ITEM('',(#271),#419);
#244=STYLED_ITEM('',(#272),#420);
#245=STYLED_ITEM('',(#273),#421);
#246=STYLED_ITEM('',(#274),#422);
#247=STYLED_ITEM('',(#275),#213);
#248=STYLED_ITEM('',(#276),#214);
#249=STYLED_ITEM('',(#277),#215);
#250=STYLED_ITEM('',(#278),#216);
#251=STYLED_ITEM('',(#279),#217);
#252=STYLED_ITEM('',(#280),#218);
#253=STYLED_ITEM('',(#281),#429);
#254=STYLED_ITEM('',(#282),#430);
#255=STYLED_ITEM('',(#283),#219);
#256=STYLED_ITEM('',(#284),#220);
#257=STYLED_ITEM('',(#285),#221);
#258=STYLED_ITEM('',(#286),#222);
#259=STYLED_ITEM('',(#287),#223);
#260=STYLED_ITEM('',(#288),#224);
#261=STYLED_ITEM('',(#289),#327);
#262=STYLED_ITEM('',(#290),#328);
#263=STYLED_ITEM('',(#291),#79);
#264=STYLED_ITEM('',(#292),#476);
#265=STYLED_ITEM('',(#293),#477);
#266=STYLED_ITEM('',(#294),#335);
#267=STYLED_ITEM('',(#295),#336);
#268=STYLED_ITEM('',(#296),#80);
#269=PRESENTATION_STYLE_ASSIGNMENT((#297));
#270=PRESENTATION_STYLE_ASSIGNMENT((#298));
#271=PRESENTATION_STYLE_ASSIGNMENT((#299));
#272=PRESENTATION_STYLE_ASSIGNMENT((#300));
#273=PRESENTATION_STYLE_ASSIGNMENT((#301));
#274=PRESENTATION_STYLE_ASSIGNMENT((#302));
#275=PRESENTATION_STYLE_ASSIGNMENT((#181));
#276=PRESENTATION_STYLE_ASSIGNMENT((#182));
#277=PRESENTATION_STYLE_ASSIGNMENT((#183));
#278=PRESENTATION_STYLE_ASSIGNMENT((#184));
#279=PRESENTATION_STYLE_ASSIGNMENT((#185));
#280=PRESENTATION_STYLE_ASSIGNMENT((#186));
#281=PRESENTATION_STYLE_ASSIGNMENT((#303));
#282=PRESENTATION_STYLE_ASSIGNMENT((#304));
#283=PRESENTATION_STYLE_ASSIGNMENT((#187));
#284=PRESENTATION_STYLE_ASSIGNMENT((#188));
#285=PRESENTATION_STYLE_ASSIGNMENT((#189));
#286=PRESENTATION_STYLE_ASSIGNMENT((#190));
#287=PRESENTATION_STYLE_ASSIGNMENT((#191));
#288=PRESENTATION_STYLE_ASSIGNMENT((#192));
#289=PRESENTATION_STYLE_ASSIGNMENT((#193));
#290=PRESENTATION_STYLE_ASSIGNMENT((#194));
#291=PRESENTATION_STYLE_ASSIGNMENT((#69));
#292=PRESENTATION_STYLE_ASSIGNMENT((#305));
#293=PRESENTATION_STYLE_ASSIGNMENT((#306));
#294=PRESENTATION_STYLE_ASSIGNMENT((#195));
#295=PRESENTATION_STYLE_ASSIGNMENT((#196));
#296=PRESENTATION_STYLE_ASSIGNMENT((#70));
#297=POINT_STYLE('',#307,POSITIVE_LENGTH_MEASURE(3.),#317);
#298=POINT_STYLE('',#308,POSITIVE_LENGTH_MEASURE(3.),#317);
#299=POINT_STYLE('',#309,POSITIVE_LENGTH_MEASURE(3.),#317);
#300=POINT_STYLE('',#310,POSITIVE_LENGTH_MEASURE(3.),#317);
#301=POINT_STYLE('',#311,POSITIVE_LENGTH_MEASURE(3.),#317);
#302=POINT_STYLE('',#312,POSITIVE_LENGTH_MEASURE(3.),#317);
#303=POINT_STYLE('',#313,POSITIVE_LENGTH_MEASURE(3.),#164);
#304=POINT_STYLE('',#314,POSITIVE_LENGTH_MEASURE(3.),#164);
#305=POINT_STYLE('',#315,POSITIVE_LENGTH_MEASURE(3.),#164);
#306=POINT_STYLE('',#316,POSITIVE_LENGTH_MEASURE(3.),#164);
#307=PRE_DEFINED_POINT_MARKER_SYMBOL('plus');
#308=PRE_DEFINED_POINT_MARKER_SYMBOL('plus');
#309=PRE_DEFINED_POINT_MARKER_SYMBOL('plus');
#310=PRE_DEFINED_POINT_MARKER_SYMBOL('plus');
#311=PRE_DEFINED_POINT_MARKER_SYMBOL('plus');
#312=PRE_DEFINED_POINT_MARKER_SYMBOL('plus');
#313=PRE_DEFINED_POINT_MARKER_SYMBOL('plus');
#314=PRE_DEFINED_POINT_MARKER_SYMBOL('plus');
#315=PRE_DEFINED_POINT_MARKER_SYMBOL('plus');
#316=PRE_DEFINED_POINT_MARKER_SYMBOL('plus');
#317=DRAUGHTING_PRE_DEFINED_COLOUR('white');
#318=DRAUGHTING_PRE_DEFINED_COLOUR('cyan');
#319=DRAUGHTING_PRE_DEFINED_COLOUR('blue');
#320=AXIS2_PLACEMENT_3D('',#416,#350,#351);
#321=AXIS2_PLACEMENT_3D('',#427,#356,#357);
#322=AXIS2_PLACEMENT_3D('',#428,#358,#359);
#323=AXIS2_PLACEMENT_3D('',#433,#362,#363);
#324=AXIS2_PLACEMENT_3D('',#434,#364,#365);
#325=AXIS2_PLACEMENT_3D('',#435,#366,#367);
#326=AXIS2_PLACEMENT_3D('',#436,#368,#369);
#327=AXIS2_PLACEMENT_3D('CIP',#437,#370,#371);
#328=AXIS2_PLACEMENT_3D('CRP',#438,#372,#373);
#329=AXIS2_PLACEMENT_3D('',#439,#374,#375);
#330=AXIS2_PLACEMENT_3D('',#441,#376,#377);
#331=AXIS2_PLACEMENT_3D('',#442,#378,#379);
#332=AXIS2_PLACEMENT_3D('',#472,#380,#381);
#333=AXIS2_PLACEMENT_3D('',#474,#382,#383);
#334=AXIS2_PLACEMENT_3D('',#475,#384,#385);
#335=AXIS2_PLACEMENT_3D('MCS',#478,#386,#387);
#336=AXIS2_PLACEMENT_3D('PCS',#479,#388,#389);
#337=AXIS2_PLACEMENT_3D('',#480,#390,#391);
#338=AXIS2_PLACEMENT_3D('',#482,#392,#393);
#339=AXIS2_PLACEMENT_3D('',#483,#394,#395);
#340=AXIS2_PLACEMENT_3D('',#485,#396,#397);
#341=AXIS2_PLACEMENT_3D('',#486,#398,#399);
#342=AXIS2_PLACEMENT_3D('',#488,#400,#401);
#343=AXIS2_PLACEMENT_3D('',#489,#402,#403);
#344=AXIS2_PLACEMENT_3D('',#491,#404,#405);
#345=AXIS2_PLACEMENT_3D('',#492,#406,#407);
#346=AXIS2_PLACEMENT_3D('',#494,#408,#409);
#347=AXIS2_PLACEMENT_3D('',#495,#410,#411);
#348=AXIS2_PLACEMENT_3D('',#496,#412,#413);
#349=AXIS2_PLACEMENT_3D('',#497,#414,#415);
#350=DIRECTION('',(0.,0.,1.));
#351=DIRECTION('',(1.,0.,0.));
#352=DIRECTION('',(1.,0.,0.));
#353=DIRECTION('',(6.6100775646711E-12,1.,0.));
#354=DIRECTION('',(1.88882560386056E-11,-1.,0.));
#355=DIRECTION('',(-1.,9.14285714285722E-16,0.));
#356=DIRECTION('',(0.,0.,1.));
#357=DIRECTION('',(1.,0.,0.));
#358=DIRECTION('',(0.,0.,1.));
#359=DIRECTION('',(1.,0.,0.));
#360=DIRECTION('',(1.,0.,0.));
#361=DIRECTION('',(-1.,0.,0.));
#362=DIRECTION('',(0.,-1.,0.));
#363=DIRECTION('',(0.,0.,1.));
#364=DIRECTION('',(0.,-1.,0.));
#365=DIRECTION('',(0.,0.,1.));
#366=DIRECTION('',(0.,-1.,0.));
#367=DIRECTION('',(0.,0.,1.));
#368=DIRECTION('',(0.,-1.,0.));
#369=DIRECTION('',(0.,0.,1.));
#370=DIRECTION('',(0.,0.,1.));
#371=DIRECTION('',(1.,0.,0.));
#372=DIRECTION('',(0.,0.,1.));
#373=DIRECTION('',(1.,0.,0.));
#374=DIRECTION('',(0.,4.43529411764706E-15,-1.));
#375=DIRECTION('',(0.,1.,6.05230380367276E-15));
#376=DIRECTION('',(0.,-4.43529411764706E-15,1.));
#377=DIRECTION('',(0.,-1.,-4.44089209850063E-15));
#378=DIRECTION('',(0.,4.43529411764706E-15,-1.));
#379=DIRECTION('',(0.,1.,6.34453368583165E-15));
#380=DIRECTION('',(0.,4.43529411764706E-15,-1.));
#381=DIRECTION('',(0.,1.,8.1241984892614E-15));
#382=DIRECTION('',(0.,4.43529411764706E-15,-1.));
#383=DIRECTION('',(0.,1.,6.2846495305816E-15));
#384=DIRECTION('',(0.,4.43529411764706E-15,-1.));
#385=DIRECTION('',(0.,1.,4.44089209850063E-15));
#386=DIRECTION('',(0.,0.,1.));
#387=DIRECTION('',(1.,0.,0.));
#388=DIRECTION('',(0.,0.,1.));
#389=DIRECTION('',(1.,0.,0.));
#390=DIRECTION('',(0.,8.99186991869919E-16,1.));
#391=DIRECTION('',(0.,-1.,0.));
#392=DIRECTION('',(0.,-8.99186991869919E-16,-1.));
#393=DIRECTION('',(0.,1.,-8.88178419700125E-16));
#394=DIRECTION('',(0.,8.99186991869919E-16,1.));
#395=DIRECTION('',(0.,-1.,0.));
#396=DIRECTION('',(0.,8.99186991869919E-16,1.));
#397=DIRECTION('',(0.,-1.,0.));
#398=DIRECTION('',(0.,8.99186991869919E-16,1.));
#399=DIRECTION('',(0.,-1.,0.));
#400=DIRECTION('',(0.,8.99186991869919E-16,1.));
#401=DIRECTION('',(0.,-1.,1.63268091856641E-15));
#402=DIRECTION('',(0.,8.99186991869919E-16,1.));
#403=DIRECTION('',(0.,-1.,9.10729824887837E-16));
#404=DIRECTION('',(0.,8.99186991869919E-16,1.));
#405=DIRECTION('',(0.,-1.,0.));
#406=DIRECTION('',(0.,8.99186991869919E-16,1.));
#407=DIRECTION('',(0.,-1.,8.99186991869919E-16));
#408=DIRECTION('',(0.,-8.99186991869919E-16,-1.));
#409=DIRECTION('',(0.,1.,-8.84639860259089E-16));
#410=DIRECTION('',(0.,8.99186991869919E-16,1.));
#411=DIRECTION('',(0.,-1.,8.99186991869919E-16));
#412=DIRECTION('',(0.,0.,1.));
#413=DIRECTION('',(1.,0.,0.));
#414=DIRECTION('',(0.,0.,1.));
#415=DIRECTION('',(1.,0.,0.));
#416=CARTESIAN_POINT('',(0.,0.,0.));
#417=CARTESIAN_POINT('',(0.,0.,0.));
#418=CARTESIAN_POINT('',(0.,0.,0.));
#419=CARTESIAN_POINT('',(0.,0.,0.));
#420=CARTESIAN_POINT('',(0.,0.,0.));
#421=CARTESIAN_POINT('',(0.,0.,0.));
#422=CARTESIAN_POINT('',(0.,0.,0.));
#423=CARTESIAN_POINT('',(78.249999999967,0.,0.));
#424=CARTESIAN_POINT('',(79.9999999999669,0.,0.));
#425=CARTESIAN_POINT('',(79.9999999999669,0.,0.));
#426=CARTESIAN_POINT('',(81.7499999999669,-1.6E-15,0.));
#427=CARTESIAN_POINT('',(79.9999999999669,0.,0.));
#428=CARTESIAN_POINT('',(79.9999999999669,0.,0.));
#429=CARTESIAN_POINT('',(-5.,-1.7600000000054E-14,-149.999999999988));
#430=CARTESIAN_POINT('',(0.,-1.7600000000054E-14,-149.999999999988));
#431=CARTESIAN_POINT('',(-3.41640786501171,-1.7600000000054E-14,-149.999999999994));
#432=CARTESIAN_POINT('',(4.58595214582352,-1.73472347597681E-14,-141.499999999988));
#433=CARTESIAN_POINT('',(3.41640786499996,-2.21177243187043E-14,-149.));
#434=CARTESIAN_POINT('',(9.99999999998827,-3.98986399474666E-14,-144.999999999988));
#435=CARTESIAN_POINT('',(-9.99999999998827,-3.98986399474666E-14,-144.999999999988));
#436=CARTESIAN_POINT('',(-3.41640786499996,-2.21177243187043E-14,-149.));
#437=CARTESIAN_POINT('',(0.,-1.7600000000054E-14,-149.999999999988));
#438=CARTESIAN_POINT('',(-5.,-1.7600000000054E-14,-149.999999999988));
#439=CARTESIAN_POINT('',(0.,-5.53000000001077E-14,-141.499999999976));
#440=CARTESIAN_POINT('',(0.,4.58595214582346,-141.499999999976));
#441=CARTESIAN_POINT('',(0.,4.58595214582345,-141.499999999988));
#442=CARTESIAN_POINT('',(0.,-2.07680672268922E-14,-149.285714285714));
#443=CARTESIAN_POINT('',(0.,4.37472271249995,-149.285714285714));
#444=CARTESIAN_POINT('',(0.,4.37472271250611,-149.285714285716));
#445=CARTESIAN_POINT('',(8.74944542501227,4.37472271250611,-149.285714285716));
#446=CARTESIAN_POINT('',(8.74944542501227,-4.37472271250615,-149.285714285716));
#447=CARTESIAN_POINT('',(0.,-4.37472271250615,-149.285714285716));
#448=CARTESIAN_POINT('',(-8.74944542501227,-4.37472271250615,-149.285714285716));
#449=CARTESIAN_POINT('',(-8.74944542501227,4.37472271250611,-149.285714285716));
#450=CARTESIAN_POINT('',(0.,4.37472271250611,-149.285714285716));
#451=CARTESIAN_POINT('',(0.,5.13384516501129,-146.739540175153));
#452=CARTESIAN_POINT('',(10.2676903300226,5.13384516501129,-146.739540175153));
#453=CARTESIAN_POINT('',(10.2676903300226,-5.13384516501135,-146.739540175153));
#454=CARTESIAN_POINT('',(0.,-5.13384516501135,-146.739540175153));
#455=CARTESIAN_POINT('',(-10.2676903300226,-5.13384516501135,-146.739540175153));
#456=CARTESIAN_POINT('',(-10.2676903300226,5.13384516501129,-146.739540175153));
#457=CARTESIAN_POINT('',(0.,5.13384516501129,-146.739540175153));
#458=CARTESIAN_POINT('',(0.,5.20590214870286,-144.08358887848));
#459=CARTESIAN_POINT('',(10.4118042974058,5.20590214870286,-144.08358887848));
#460=CARTESIAN_POINT('',(10.4118042974058,-5.20590214870294,-144.08358887848));
#461=CARTESIAN_POINT('',(0.,-5.20590214870294,-144.08358887848));
#462=CARTESIAN_POINT('',(-10.4118042974058,-5.20590214870294,-144.08358887848));
#463=CARTESIAN_POINT('',(-10.4118042974058,5.20590214870286,-144.08358887848));
#464=CARTESIAN_POINT('',(0.,5.20590214870286,-144.08358887848));
#465=CARTESIAN_POINT('',(0.,4.58595214582346,-141.499999999976));
#466=CARTESIAN_POINT('',(9.17190429164704,4.58595214582346,-141.499999999976));
#467=CARTESIAN_POINT('',(9.17190429164704,-4.58595214582357,-141.499999999976));
#468=CARTESIAN_POINT('',(0.,-4.58595214582357,-141.499999999976));
#469=CARTESIAN_POINT('',(-9.17190429164704,-4.58595214582357,-141.499999999976));
#470=CARTESIAN_POINT('',(-9.17190429164704,4.58595214582346,-141.499999999976));
#471=CARTESIAN_POINT('',(0.,4.58595214582346,-141.499999999976));
#472=CARTESIAN_POINT('',(0.,-1.7600000000054E-14,-149.999999999988));
#473=CARTESIAN_POINT('',(0.,3.41640786501169,-149.999999999988));
#474=CARTESIAN_POINT('',(0.,-2.21177243187043E-14,-149.));
#475=CARTESIAN_POINT('',(0.,-1.76000000000269E-14,-149.999999999994));
#476=CARTESIAN_POINT('',(0.,4.04268623174034E-30,-80.));
#477=CARTESIAN_POINT('',(0.,0.,0.));
#478=CARTESIAN_POINT('',(0.,4.04268623174034E-30,-80.));
#479=CARTESIAN_POINT('',(0.,0.,0.));
#480=CARTESIAN_POINT('',(0.,-5.53E-14,-141.5));
#481=CARTESIAN_POINT('',(0.,-4.50000000000006,-141.5));
#482=CARTESIAN_POINT('',(0.,4.49999999999994,-141.5));
#483=CARTESIAN_POINT('',(0.,-1.18951258128698E-15,-81.3228756555));
#484=CARTESIAN_POINT('',(0.,-4.49999999999997,-81.3228756555));
#485=CARTESIAN_POINT('',(0.,0.,-80.));
#486=CARTESIAN_POINT('',(0.,4.04268623174034E-30,-80.));
#487=CARTESIAN_POINT('',(0.,-4.99999999999997,-80.));
#488=CARTESIAN_POINT('',(0.,-8.67361737988404E-16,-81.3228756555));
#489=CARTESIAN_POINT('',(0.,7.10357723577236E-14,-1.));
#490=CARTESIAN_POINT('',(0.,-4.99999999999986,-0.999999999999996));
#491=CARTESIAN_POINT('',(0.,0.,-80.));
#492=CARTESIAN_POINT('',(0.,7.19349593495935E-14,0.));
#493=CARTESIAN_POINT('',(0.,-3.99999999999986,3.59674796747961E-15));
#494=CARTESIAN_POINT('',(0.,7.19349593495935E-14,0.));
#495=CARTESIAN_POINT('',(0.,1.61707449269615E-30,1.79837398373984E-15));
#496=CARTESIAN_POINT('',(0.,0.,0.));
#497=CARTESIAN_POINT('',(0.,0.,0.));
#498=MECHANICAL_DESIGN_GEOMETRIC_PRESENTATION_REPRESENTATION('',(#241,#242,
#243,#244,#245,#246,#247,#248,#249,#250,#251,#252),#501);
#499=MECHANICAL_DESIGN_GEOMETRIC_PRESENTATION_REPRESENTATION('',(#253,#254,
#255,#256,#257,#258,#259,#260,#261,#262,#263),#502);
#500=MECHANICAL_DESIGN_GEOMETRIC_PRESENTATION_REPRESENTATION('',(#264,#265,
#266,#267,#268),#503);
#501=(
GEOMETRIC_REPRESENTATION_CONTEXT(3)
GLOBAL_UNCERTAINTY_ASSIGNED_CONTEXT((#504))
GLOBAL_UNIT_ASSIGNED_CONTEXT((#512,#508,#507))
REPRESENTATION_CONTEXT('7820081_7801421','TOP_LEVEL_ASSEMBLY_PART')
);
#502=(
GEOMETRIC_REPRESENTATION_CONTEXT(3)
GLOBAL_UNCERTAINTY_ASSIGNED_CONTEXT((#505))
GLOBAL_UNIT_ASSIGNED_CONTEXT((#512,#508,#507))
REPRESENTATION_CONTEXT('CUT_7820081_7801421','COMPONENT_PART')
);
#503=(
GEOMETRIC_REPRESENTATION_CONTEXT(3)
GLOBAL_UNCERTAINTY_ASSIGNED_CONTEXT((#506))
GLOBAL_UNIT_ASSIGNED_CONTEXT((#512,#508,#507))
REPRESENTATION_CONTEXT('NOCUT_7820081_7801421','COMPONENT_PART')
);
#504=UNCERTAINTY_MEASURE_WITH_UNIT(LENGTH_MEASURE(2.E-5),#512,
'DISTANCE_ACCURACY_VALUE','Maximum Tolerance applied to model');
#505=UNCERTAINTY_MEASURE_WITH_UNIT(LENGTH_MEASURE(0.0254),#512,
'DISTANCE_ACCURACY_VALUE','Maximum Tolerance applied to model');
#506=UNCERTAINTY_MEASURE_WITH_UNIT(LENGTH_MEASURE(2.E-5),#512,
'DISTANCE_ACCURACY_VALUE','Maximum Tolerance applied to model');
#507=(
NAMED_UNIT(*)
SI_UNIT($,.STERADIAN.)
SOLID_ANGLE_UNIT()
);
#508=(
CONVERSION_BASED_UNIT('DEGREE',#510)
NAMED_UNIT(#509)
PLANE_ANGLE_UNIT()
);
#509=DIMENSIONAL_EXPONENTS(0.,0.,0.,0.,0.,0.,0.);
#510=PLANE_ANGLE_MEASURE_WITH_UNIT(PLANE_ANGLE_MEASURE(0.0174532925),#511);
#511=(
NAMED_UNIT(*)
PLANE_ANGLE_UNIT()
SI_UNIT($,.RADIAN.)
);
#512=(
LENGTH_UNIT()
NAMED_UNIT(*)
SI_UNIT(.MILLI.,.METRE.)
);
ENDSEC;
END-ISO-10303-21;
