ISO-10303-21;
HEADER;
/* Generated by software containing ST-Developer
 * from STEP Tools, Inc. (www.steptools.com) 
 */
/* OPTION: using custom schema-name function */

FILE_DESCRIPTION(
/* description */ (''),
/* implementation_level */ '2;1');

FILE_NAME(
/* name */ '7820071_7801401.stp',
/* time_stamp */ '2019-12-24T16:28:58+09:00',
/* author */ (''),
/* organization */ (''),
/* preprocessor_version */ 'ST-DEVELOPER v16.7',
/* originating_system */ 'SIEMENS PLM Software NX 12.0',
/* authorisation */ '');

FILE_SCHEMA (('AUTOMOTIVE_DESIGN { 1 0 10303 214 3 1 1 1 }'));
ENDSEC;

DATA;
#10=CONTEXT_DEPENDENT_SHAPE_REPRESENTATION(#14,#36);
#11=CONTEXT_DEPENDENT_SHAPE_REPRESENTATION(#15,#37);
#12=NEXT_ASSEMBLY_USAGE_OCCURRENCE('1001',' ','CUT_7820071_7801401',#40,
#39,$);
#13=NEXT_ASSEMBLY_USAGE_OCCURRENCE('1002',' ','NOCUT_7820071_7801401',#40,
#38,$);
#14=(
REPRESENTATION_RELATIONSHIP(' ',' ',#59,#60)
REPRESENTATION_RELATIONSHIP_WITH_TRANSFORMATION(#16)
SHAPE_REPRESENTATION_RELATIONSHIP()
);
#15=(
REPRESENTATION_RELATIONSHIP(' ',' ',#58,#60)
REPRESENTATION_RELATIONSHIP_WITH_TRANSFORMATION(#17)
SHAPE_REPRESENTATION_RELATIONSHIP()
);
#16=ITEM_DEFINED_TRANSFORMATION(' ',' ',#248,#274);
#17=ITEM_DEFINED_TRANSFORMATION(' ',' ',#248,#275);
#18=CONSTRUCTIVE_GEOMETRY_REPRESENTATION_RELATIONSHIP(
'supplemental geometry','',#58,#20);
#19=CONSTRUCTIVE_GEOMETRY_REPRESENTATION_RELATIONSHIP(
'supplemental geometry','',#59,#21);
#20=CONSTRUCTIVE_GEOMETRY_REPRESENTATION('supplemental geometry',(#261,
#262),#408);
#21=CONSTRUCTIVE_GEOMETRY_REPRESENTATION('supplemental geometry',(#253,
#254),#407);
#22=GEOMETRICALLY_BOUNDED_WIREFRAME_SHAPE_REPRESENTATION(
'NOCUT_7820071_7801401-None',(#61),#408);
#23=GEOMETRICALLY_BOUNDED_WIREFRAME_SHAPE_REPRESENTATION(
'CUT_7820071_7801401-None',(#62),#407);
#24=SHAPE_REPRESENTATION_RELATIONSHIP('None',
'relationship between NOCUT_7820071_7801401-None and NOCUT_7820071_780
1401-None',#58,#28);
#25=SHAPE_REPRESENTATION_RELATIONSHIP('None',
'relationship between NOCUT_7820071_7801401-None and NOCUT_7820071_780
1401-None',#58,#22);
#26=SHAPE_REPRESENTATION_RELATIONSHIP('None',
'relationship between CUT_7820071_7801401-None and CUT_7820071_7801401
-None',#59,#29);
#27=SHAPE_REPRESENTATION_RELATIONSHIP('None',
'relationship between CUT_7820071_7801401-None and CUT_7820071_7801401
-None',#59,#23);
#28=ADVANCED_BREP_SHAPE_REPRESENTATION('NOCUT_7820071_7801401-None',(#77),
#408);
#29=ADVANCED_BREP_SHAPE_REPRESENTATION('CUT_7820071_7801401-None',(#76),
#407);
#30=SHAPE_DEFINITION_REPRESENTATION(#33,#58);
#31=SHAPE_DEFINITION_REPRESENTATION(#34,#59);
#32=SHAPE_DEFINITION_REPRESENTATION(#35,#60);
#33=PRODUCT_DEFINITION_SHAPE('','',#38);
#34=PRODUCT_DEFINITION_SHAPE('','',#39);
#35=PRODUCT_DEFINITION_SHAPE('','',#40);
#36=PRODUCT_DEFINITION_SHAPE(' ','NAUO PRDDFN',#12);
#37=PRODUCT_DEFINITION_SHAPE(' ','NAUO PRDDFN',#13);
#38=PRODUCT_DEFINITION(' ','',#44,#41);
#39=PRODUCT_DEFINITION(' ','',#45,#42);
#40=PRODUCT_DEFINITION(' ','',#46,#43);
#41=PRODUCT_DEFINITION_CONTEXT('part definition',#57,'design');
#42=PRODUCT_DEFINITION_CONTEXT('part definition',#57,'design');
#43=PRODUCT_DEFINITION_CONTEXT('part definition',#57,'design');
#44=PRODUCT_DEFINITION_FORMATION_WITH_SPECIFIED_SOURCE(' ',' ',#50,
 .NOT_KNOWN.);
#45=PRODUCT_DEFINITION_FORMATION_WITH_SPECIFIED_SOURCE(' ',' ',#51,
 .NOT_KNOWN.);
#46=PRODUCT_DEFINITION_FORMATION_WITH_SPECIFIED_SOURCE(' ',' ',#52,
 .NOT_KNOWN.);
#47=PRODUCT_RELATED_PRODUCT_CATEGORY('part','',(#50));
#48=PRODUCT_RELATED_PRODUCT_CATEGORY('part','',(#51));
#49=PRODUCT_RELATED_PRODUCT_CATEGORY('part','',(#52));
#50=PRODUCT('NOCUT_7820071_7801401','NOCUT_7820071_7801401',' ',(#53));
#51=PRODUCT('CUT_7820071_7801401','CUT_7820071_7801401',' ',(#54));
#52=PRODUCT('7820071_7801401','7820071_7801401',' ',(#55));
#53=PRODUCT_CONTEXT(' ',#57,'mechanical');
#54=PRODUCT_CONTEXT(' ',#57,'mechanical');
#55=PRODUCT_CONTEXT(' ',#57,'mechanical');
#56=APPLICATION_PROTOCOL_DEFINITION('international standard',
'automotive_design',2010,#57);
#57=APPLICATION_CONTEXT(
'core data for automotive mechanical design processes');
#58=SHAPE_REPRESENTATION('NOCUT_7820071_7801401-None',(#248),#408);
#59=SHAPE_REPRESENTATION('CUT_7820071_7801401-None',(#248),#407);
#60=SHAPE_REPRESENTATION('7820071_7801401-none',(#248,#274,#275),#406);
#61=GEOMETRIC_CURVE_SET('None',(#382,#383));
#62=GEOMETRIC_CURVE_SET('None',(#335,#336,#194,#195,#196,#197,#198,#199));
#63=CONICAL_SURFACE('',#272,4.00000000000058,44.9999999999994);
#64=CYLINDRICAL_SURFACE('',#266,4.50000000000009);
#65=CYLINDRICAL_SURFACE('',#270,5.00000000000037);
#66=SURFACE_STYLE_USAGE(.BOTH.,#68);
#67=SURFACE_STYLE_USAGE(.BOTH.,#69);
#68=SURFACE_SIDE_STYLE('',(#70));
#69=SURFACE_SIDE_STYLE('',(#71));
#70=SURFACE_STYLE_FILL_AREA(#72);
#71=SURFACE_STYLE_FILL_AREA(#73);
#72=FILL_AREA_STYLE('',(#74));
#73=FILL_AREA_STYLE('',(#75));
#74=FILL_AREA_STYLE_COLOUR('',#246);
#75=FILL_AREA_STYLE_COLOUR('',#247);
#76=MANIFOLD_SOLID_BREP('',#78);
#77=MANIFOLD_SOLID_BREP('',#79);
#78=CLOSED_SHELL('',(#95,#96,#97,#98));
#79=CLOSED_SHELL('',(#99,#100,#101,#102,#103,#104));
#80=TOROIDAL_SURFACE('',#259,3.41640786499996,1.);
#81=TOROIDAL_SURFACE('',#268,6.49999999983476,1.99999999983458);
#82=(
BOUNDED_SURFACE()
B_SPLINE_SURFACE(3,3,((#350,#351,#352,#353,#354,#355,#356),(#357,#358,#359,
#360,#361,#362,#363),(#364,#365,#366,#367,#368,#369,#370),(#371,#372,#373,
#374,#375,#376,#377)),.UNSPECIFIED.,.F.,.T.,.F.)
B_SPLINE_SURFACE_WITH_KNOTS((4,4),(1,3,3,3,1),(0.,1.),(-0.5,0.,0.5,1.,1.5),
 .UNSPECIFIED.)
GEOMETRIC_REPRESENTATION_ITEM()
RATIONAL_B_SPLINE_SURFACE(((1.,0.333333333333333,0.333333333333333,1.,0.333333333333333,
0.333333333333333,1.),(0.977140694747549,0.32571356491585,0.32571356491585,
0.977140694747549,0.32571356491585,0.32571356491585,0.977140694747549),
(0.977140694747549,0.32571356491585,0.32571356491585,0.977140694747549,
0.32571356491585,0.32571356491585,0.977140694747549),(1.,0.333333333333333,
0.333333333333333,1.,0.333333333333333,0.333333333333333,1.)))
REPRESENTATION_ITEM('')
SURFACE()
);
#83=FACE_BOUND('',#114,.T.);
#84=FACE_BOUND('',#115,.T.);
#85=FACE_BOUND('',#116,.T.);
#86=FACE_BOUND('',#117,.T.);
#87=FACE_BOUND('',#120,.T.);
#88=FACE_BOUND('',#121,.T.);
#89=FACE_BOUND('',#122,.T.);
#90=FACE_BOUND('',#123,.T.);
#91=FACE_BOUND('',#124,.T.);
#92=FACE_BOUND('',#125,.T.);
#93=FACE_BOUND('',#126,.T.);
#94=FACE_BOUND('',#127,.T.);
#95=ADVANCED_FACE('',(#109),#105,.F.);
#96=ADVANCED_FACE('',(#83,#84),#82,.T.);
#97=ADVANCED_FACE('',(#85,#86),#80,.T.);
#98=ADVANCED_FACE('',(#110),#106,.F.);
#99=ADVANCED_FACE('',(#111),#107,.T.);
#100=ADVANCED_FACE('',(#87,#88),#64,.T.);
#101=ADVANCED_FACE('',(#89,#90),#81,.F.);
#102=ADVANCED_FACE('',(#91,#92),#65,.T.);
#103=ADVANCED_FACE('',(#93,#94),#63,.T.);
#104=ADVANCED_FACE('',(#112),#108,.T.);
#105=PLANE('',#256);
#106=PLANE('',#260);
#107=PLANE('',#264);
#108=PLANE('',#273);
#109=FACE_OUTER_BOUND('',#113,.T.);
#110=FACE_OUTER_BOUND('',#118,.T.);
#111=FACE_OUTER_BOUND('',#119,.T.);
#112=FACE_OUTER_BOUND('',#128,.T.);
#113=EDGE_LOOP('',(#129));
#114=EDGE_LOOP('',(#130));
#115=EDGE_LOOP('',(#131));
#116=EDGE_LOOP('',(#132));
#117=EDGE_LOOP('',(#133));
#118=EDGE_LOOP('',(#134));
#119=EDGE_LOOP('',(#135));
#120=EDGE_LOOP('',(#136));
#121=EDGE_LOOP('',(#137));
#122=EDGE_LOOP('',(#138));
#123=EDGE_LOOP('',(#139));
#124=EDGE_LOOP('',(#140));
#125=EDGE_LOOP('',(#141));
#126=EDGE_LOOP('',(#142));
#127=EDGE_LOOP('',(#143));
#128=EDGE_LOOP('',(#144));
#129=ORIENTED_EDGE('',*,*,#153,.T.);
#130=ORIENTED_EDGE('',*,*,#153,.F.);
#131=ORIENTED_EDGE('',*,*,#154,.T.);
#132=ORIENTED_EDGE('',*,*,#154,.F.);
#133=ORIENTED_EDGE('',*,*,#155,.T.);
#134=ORIENTED_EDGE('',*,*,#155,.F.);
#135=ORIENTED_EDGE('',*,*,#156,.F.);
#136=ORIENTED_EDGE('',*,*,#156,.T.);
#137=ORIENTED_EDGE('',*,*,#157,.F.);
#138=ORIENTED_EDGE('',*,*,#157,.T.);
#139=ORIENTED_EDGE('',*,*,#158,.F.);
#140=ORIENTED_EDGE('',*,*,#158,.T.);
#141=ORIENTED_EDGE('',*,*,#159,.F.);
#142=ORIENTED_EDGE('',*,*,#159,.T.);
#143=ORIENTED_EDGE('',*,*,#160,.F.);
#144=ORIENTED_EDGE('',*,*,#160,.T.);
#145=VERTEX_POINT('',#346);
#146=VERTEX_POINT('',#349);
#147=VERTEX_POINT('',#379);
#148=VERTEX_POINT('',#387);
#149=VERTEX_POINT('',#390);
#150=VERTEX_POINT('',#393);
#151=VERTEX_POINT('',#396);
#152=VERTEX_POINT('',#399);
#153=EDGE_CURVE('',#145,#145,#165,.T.);
#154=EDGE_CURVE('',#146,#146,#166,.T.);
#155=EDGE_CURVE('',#147,#147,#167,.T.);
#156=EDGE_CURVE('',#148,#148,#168,.T.);
#157=EDGE_CURVE('',#149,#149,#169,.T.);
#158=EDGE_CURVE('',#150,#150,#170,.T.);
#159=EDGE_CURVE('',#151,#151,#171,.T.);
#160=EDGE_CURVE('',#152,#152,#172,.T.);
#161=CIRCLE('CUTTING EDGE LINE',#249,1.);
#162=CIRCLE('CUTTING EDGE LINE',#250,14.9999999999998);
#163=CIRCLE('CUTTING EDGE LINE',#251,1.);
#164=CIRCLE('CUTTING EDGE LINE',#252,14.9999999999998);
#165=CIRCLE('',#255,4.58595214581175);
#166=CIRCLE('',#257,4.37472271249997);
#167=CIRCLE('',#258,3.41640786501171);
#168=CIRCLE('',#263,4.5);
#169=CIRCLE('',#265,4.50000000000018);
#170=CIRCLE('',#267,5.00000000000017);
#171=CIRCLE('',#269,5.00000000000057);
#172=CIRCLE('',#271,4.00000000000058);
#173=CURVE_STYLE('',#184,POSITIVE_LENGTH_MEASURE(0.7),#183);
#174=CURVE_STYLE('',#185,POSITIVE_LENGTH_MEASURE(0.7),#183);
#175=CURVE_STYLE('',#186,POSITIVE_LENGTH_MEASURE(0.7),#183);
#176=CURVE_STYLE('',#187,POSITIVE_LENGTH_MEASURE(0.7),#183);
#177=CURVE_STYLE('',#188,POSITIVE_LENGTH_MEASURE(0.7),#183);
#178=CURVE_STYLE('',#189,POSITIVE_LENGTH_MEASURE(0.7),#183);
#179=CURVE_STYLE('',#190,POSITIVE_LENGTH_MEASURE(0.7),#245);
#180=CURVE_STYLE('',#191,POSITIVE_LENGTH_MEASURE(0.7),#245);
#181=CURVE_STYLE('',#192,POSITIVE_LENGTH_MEASURE(0.7),#245);
#182=CURVE_STYLE('',#193,POSITIVE_LENGTH_MEASURE(0.7),#245);
#183=DRAUGHTING_PRE_DEFINED_COLOUR('blue');
#184=DRAUGHTING_PRE_DEFINED_CURVE_FONT('continuous');
#185=DRAUGHTING_PRE_DEFINED_CURVE_FONT('continuous');
#186=DRAUGHTING_PRE_DEFINED_CURVE_FONT('continuous');
#187=DRAUGHTING_PRE_DEFINED_CURVE_FONT('continuous');
#188=DRAUGHTING_PRE_DEFINED_CURVE_FONT('continuous');
#189=DRAUGHTING_PRE_DEFINED_CURVE_FONT('continuous');
#190=DRAUGHTING_PRE_DEFINED_CURVE_FONT('continuous');
#191=DRAUGHTING_PRE_DEFINED_CURVE_FONT('continuous');
#192=DRAUGHTING_PRE_DEFINED_CURVE_FONT('continuous');
#193=DRAUGHTING_PRE_DEFINED_CURVE_FONT('continuous');
#194=TRIMMED_CURVE('CUTTING EDGE LINE',#200,(PARAMETER_VALUE(0.)),(
PARAMETER_VALUE(1.)),.T.,.PARAMETER.);
#195=TRIMMED_CURVE('CUTTING EDGE LINE',#201,(PARAMETER_VALUE(0.)),(
PARAMETER_VALUE(1.)),.T.,.PARAMETER.);
#196=TRIMMED_CURVE('CUTTING EDGE LINE',#161,(PARAMETER_VALUE(106.601549599)),
(PARAMETER_VALUE(179.999999999327)),.T.,.PARAMETER.);
#197=TRIMMED_CURVE('CUTTING EDGE LINE',#162,(PARAMETER_VALUE(76.5066011784007)),
(PARAMETER_VALUE(106.601549599018)),.T.,.PARAMETER.);
#198=TRIMMED_CURVE('CUTTING EDGE LINE',#163,(PARAMETER_VALUE(180.000000000673)),
(PARAMETER_VALUE(253.398450401)),.T.,.PARAMETER.);
#199=TRIMMED_CURVE('CUTTING EDGE LINE',#164,(PARAMETER_VALUE(253.398450400982)),
(PARAMETER_VALUE(283.493398821599)),.T.,.PARAMETER.);
#200=LINE('CUTTING EDGE LINE',#337,#202);
#201=LINE('CUTTING EDGE LINE',#338,#203);
#202=VECTOR('',#278,9.17190429162349);
#203=VECTOR('',#279,6.83281573002342);
#204=PRESENTATION_LAYER_ASSIGNMENT('1','Layer 1',(#335,#336,#194,#195,#196,
#197,#198,#199,#253,#254,#76,#382,#383,#261,#262,#77));
#205=STYLED_ITEM('',(#221),#335);
#206=STYLED_ITEM('',(#222),#336);
#207=STYLED_ITEM('',(#223),#194);
#208=STYLED_ITEM('',(#224),#195);
#209=STYLED_ITEM('',(#225),#196);
#210=STYLED_ITEM('',(#226),#197);
#211=STYLED_ITEM('',(#227),#198);
#212=STYLED_ITEM('',(#228),#199);
#213=STYLED_ITEM('',(#229),#253);
#214=STYLED_ITEM('',(#230),#254);
#215=STYLED_ITEM('',(#231),#76);
#216=STYLED_ITEM('',(#232),#382);
#217=STYLED_ITEM('',(#233),#383);
#218=STYLED_ITEM('',(#234),#261);
#219=STYLED_ITEM('',(#235),#262);
#220=STYLED_ITEM('',(#236),#77);
#221=PRESENTATION_STYLE_ASSIGNMENT((#237));
#222=PRESENTATION_STYLE_ASSIGNMENT((#238));
#223=PRESENTATION_STYLE_ASSIGNMENT((#173));
#224=PRESENTATION_STYLE_ASSIGNMENT((#174));
#225=PRESENTATION_STYLE_ASSIGNMENT((#175));
#226=PRESENTATION_STYLE_ASSIGNMENT((#176));
#227=PRESENTATION_STYLE_ASSIGNMENT((#177));
#228=PRESENTATION_STYLE_ASSIGNMENT((#178));
#229=PRESENTATION_STYLE_ASSIGNMENT((#179));
#230=PRESENTATION_STYLE_ASSIGNMENT((#180));
#231=PRESENTATION_STYLE_ASSIGNMENT((#66));
#232=PRESENTATION_STYLE_ASSIGNMENT((#239));
#233=PRESENTATION_STYLE_ASSIGNMENT((#240));
#234=PRESENTATION_STYLE_ASSIGNMENT((#181));
#235=PRESENTATION_STYLE_ASSIGNMENT((#182));
#236=PRESENTATION_STYLE_ASSIGNMENT((#67));
#237=POINT_STYLE('',#241,POSITIVE_LENGTH_MEASURE(3.),#245);
#238=POINT_STYLE('',#242,POSITIVE_LENGTH_MEASURE(3.),#245);
#239=POINT_STYLE('',#243,POSITIVE_LENGTH_MEASURE(3.),#245);
#240=POINT_STYLE('',#244,POSITIVE_LENGTH_MEASURE(3.),#245);
#241=PRE_DEFINED_POINT_MARKER_SYMBOL('plus');
#242=PRE_DEFINED_POINT_MARKER_SYMBOL('plus');
#243=PRE_DEFINED_POINT_MARKER_SYMBOL('plus');
#244=PRE_DEFINED_POINT_MARKER_SYMBOL('plus');
#245=COLOUR_RGB('Medium Maroon',0.6,0.4,0.4);
#246=COLOUR_RGB('Light Gray',0.8,0.8,0.8);
#247=COLOUR_RGB('Medium Gray',0.490196078431373,0.490196078431373,0.490196078431373);
#248=AXIS2_PLACEMENT_3D('',#334,#276,#277);
#249=AXIS2_PLACEMENT_3D('',#339,#280,#281);
#250=AXIS2_PLACEMENT_3D('',#340,#282,#283);
#251=AXIS2_PLACEMENT_3D('',#341,#284,#285);
#252=AXIS2_PLACEMENT_3D('',#342,#286,#287);
#253=AXIS2_PLACEMENT_3D('CRP',#343,#288,#289);
#254=AXIS2_PLACEMENT_3D('CIP',#344,#290,#291);
#255=AXIS2_PLACEMENT_3D('',#345,#292,#293);
#256=AXIS2_PLACEMENT_3D('',#347,#294,#295);
#257=AXIS2_PLACEMENT_3D('',#348,#296,#297);
#258=AXIS2_PLACEMENT_3D('',#378,#298,#299);
#259=AXIS2_PLACEMENT_3D('',#380,#300,#301);
#260=AXIS2_PLACEMENT_3D('',#381,#302,#303);
#261=AXIS2_PLACEMENT_3D('MCS',#384,#304,#305);
#262=AXIS2_PLACEMENT_3D('PCS',#385,#306,#307);
#263=AXIS2_PLACEMENT_3D('',#386,#308,#309);
#264=AXIS2_PLACEMENT_3D('',#388,#310,#311);
#265=AXIS2_PLACEMENT_3D('',#389,#312,#313);
#266=AXIS2_PLACEMENT_3D('',#391,#314,#315);
#267=AXIS2_PLACEMENT_3D('',#392,#316,#317);
#268=AXIS2_PLACEMENT_3D('',#394,#318,#319);
#269=AXIS2_PLACEMENT_3D('',#395,#320,#321);
#270=AXIS2_PLACEMENT_3D('',#397,#322,#323);
#271=AXIS2_PLACEMENT_3D('',#398,#324,#325);
#272=AXIS2_PLACEMENT_3D('',#400,#326,#327);
#273=AXIS2_PLACEMENT_3D('',#401,#328,#329);
#274=AXIS2_PLACEMENT_3D('',#402,#330,#331);
#275=AXIS2_PLACEMENT_3D('',#403,#332,#333);
#276=DIRECTION('',(0.,0.,1.));
#277=DIRECTION('',(1.,0.,0.));
#278=DIRECTION('',(-1.,0.,0.));
#279=DIRECTION('',(1.,0.,0.));
#280=DIRECTION('',(0.,-1.,0.));
#281=DIRECTION('',(0.,0.,1.));
#282=DIRECTION('',(0.,-1.,0.));
#283=DIRECTION('',(0.,0.,1.));
#284=DIRECTION('',(0.,-1.,0.));
#285=DIRECTION('',(0.,0.,1.));
#286=DIRECTION('',(0.,-1.,0.));
#287=DIRECTION('',(0.,0.,1.));
#288=DIRECTION('',(0.,0.,1.));
#289=DIRECTION('',(1.,0.,0.));
#290=DIRECTION('',(0.,0.,1.));
#291=DIRECTION('',(1.,0.,0.));
#292=DIRECTION('',(0.,-4.43529411764706E-15,1.));
#293=DIRECTION('',(0.,-1.,-3.02615190184414E-15));
#294=DIRECTION('',(0.,4.43529411764706E-15,-1.));
#295=DIRECTION('',(0.,1.,4.44089209850063E-15));
#296=DIRECTION('',(0.,-4.43529411764706E-15,1.));
#297=DIRECTION('',(0.,-1.,-6.34453368583165E-15));
#298=DIRECTION('',(0.,-4.43529411764706E-15,1.));
#299=DIRECTION('',(0.,-1.,-8.1241984892614E-15));
#300=DIRECTION('',(0.,-4.43529411764706E-15,1.));
#301=DIRECTION('',(0.,-1.,-6.2846495305816E-15));
#302=DIRECTION('',(0.,-4.43529411764706E-15,1.));
#303=DIRECTION('',(0.,-1.,-4.44089209850063E-15));
#304=DIRECTION('',(0.,0.,1.));
#305=DIRECTION('',(1.,0.,0.));
#306=DIRECTION('',(0.,0.,1.));
#307=DIRECTION('',(1.,0.,0.));
#308=DIRECTION('',(0.,-4.43529411764706E-15,1.));
#309=DIRECTION('',(0.,-1.,-3.08395284618099E-15));
#310=DIRECTION('',(0.,4.43529411764706E-15,-1.));
#311=DIRECTION('',(0.,1.,4.44089209850063E-15));
#312=DIRECTION('',(0.,-4.43529411764706E-15,1.));
#313=DIRECTION('',(0.,-1.,-3.08395284618087E-15));
#314=DIRECTION('',(0.,-4.43529411764706E-15,1.));
#315=DIRECTION('',(0.,-1.,-3.08395284618093E-15));
#316=DIRECTION('',(0.,-4.43529411764706E-15,1.));
#317=DIRECTION('',(0.,-1.,-5.55111512312559E-15));
#318=DIRECTION('',(0.,-4.43529411764706E-15,1.));
#319=DIRECTION('',(0.,-1.,-4.89804275588976E-15));
#320=DIRECTION('',(0.,-4.43529411764706E-15,1.));
#321=DIRECTION('',(0.,-1.,-4.42354486374035E-15));
#322=DIRECTION('',(0.,-4.43529411764706E-15,1.));
#323=DIRECTION('',(0.,-1.,-5.55111512312537E-15));
#324=DIRECTION('',(0.,-4.43529411764706E-15,1.));
#325=DIRECTION('',(0.,-1.,-4.43529411764706E-15));
#326=DIRECTION('',(0.,4.43529411764706E-15,-1.));
#327=DIRECTION('',(0.,1.,4.43702179911207E-15));
#328=DIRECTION('',(0.,-4.43529411764706E-15,1.));
#329=DIRECTION('',(0.,-1.,-4.43529411764706E-15));
#330=DIRECTION('',(0.,0.,1.));
#331=DIRECTION('',(1.,0.,0.));
#332=DIRECTION('',(0.,0.,1.));
#333=DIRECTION('',(1.,0.,0.));
#334=CARTESIAN_POINT('',(0.,0.,0.));
#335=CARTESIAN_POINT('',(0.,3.99999999946053E-16,-129.999999999988));
#336=CARTESIAN_POINT('',(-5.,3.99999999946053E-16,-129.999999999988));
#337=CARTESIAN_POINT('',(4.58595214581175,0.,-121.499999999994));
#338=CARTESIAN_POINT('',(-3.41640786501171,3.99999999946053E-16,-129.999999999994));
#339=CARTESIAN_POINT('',(-3.41640786499996,-3.90312782094782E-15,-129.));
#340=CARTESIAN_POINT('',(10.,-2.25514051876985E-14,-125.));
#341=CARTESIAN_POINT('',(3.41640786499996,-3.90312782094782E-15,-129.));
#342=CARTESIAN_POINT('',(-10.,-2.25514051876985E-14,-125.));
#343=CARTESIAN_POINT('',(-5.,3.99999999946053E-16,-129.999999999988));
#344=CARTESIAN_POINT('',(0.,3.99999999946053E-16,-129.999999999988));
#345=CARTESIAN_POINT('',(0.,-3.73000000000537E-14,-121.499999999988));
#346=CARTESIAN_POINT('',(0.,-4.58595214581179,-121.499999999988));
#347=CARTESIAN_POINT('',(0.,4.58595214582347,-121.499999999994));
#348=CARTESIAN_POINT('',(0.,-2.76806722689216E-15,-129.285714285714));
#349=CARTESIAN_POINT('',(0.,-4.37472271249998,-129.285714285714));
#350=CARTESIAN_POINT('',(0.,-4.58595214581179,-121.499999999988));
#351=CARTESIAN_POINT('',(9.1719042916235,-4.58595214581179,-121.499999999988));
#352=CARTESIAN_POINT('',(9.1719042916235,4.58595214581171,-121.499999999988));
#353=CARTESIAN_POINT('',(0.,4.58595214581171,-121.499999999988));
#354=CARTESIAN_POINT('',(-9.1719042916235,4.58595214581171,-121.499999999988));
#355=CARTESIAN_POINT('',(-9.1719042916235,-4.58595214581179,-121.499999999988));
#356=CARTESIAN_POINT('',(0.,-4.58595214581179,-121.499999999988));
#357=CARTESIAN_POINT('',(0.,-5.20590214868995,-124.083588878487));
#358=CARTESIAN_POINT('',(10.4118042973799,-5.20590214868995,-124.083588878487));
#359=CARTESIAN_POINT('',(10.4118042973799,5.2059021486899,-124.083588878487));
#360=CARTESIAN_POINT('',(0.,5.2059021486899,-124.083588878487));
#361=CARTESIAN_POINT('',(-10.4118042973799,5.2059021486899,-124.083588878487));
#362=CARTESIAN_POINT('',(-10.4118042973799,-5.20590214868995,-124.083588878487));
#363=CARTESIAN_POINT('',(0.,-5.20590214868995,-124.083588878487));
#364=CARTESIAN_POINT('',(0.,-5.13384516499984,-126.739540175155));
#365=CARTESIAN_POINT('',(10.2676903299996,-5.13384516499984,-126.739540175155));
#366=CARTESIAN_POINT('',(10.2676903299996,5.13384516499981,-126.739540175155));
#367=CARTESIAN_POINT('',(0.,5.13384516499981,-126.739540175155));
#368=CARTESIAN_POINT('',(-10.2676903299996,5.13384516499981,-126.739540175155));
#369=CARTESIAN_POINT('',(-10.2676903299996,-5.13384516499984,-126.739540175155));
#370=CARTESIAN_POINT('',(0.,-5.13384516499984,-126.739540175155));
#371=CARTESIAN_POINT('',(0.,-4.37472271249867,-129.285714285714));
#372=CARTESIAN_POINT('',(8.74944542499733,-4.37472271249867,-129.285714285714));
#373=CARTESIAN_POINT('',(8.74944542499733,4.37472271249866,-129.285714285714));
#374=CARTESIAN_POINT('',(0.,4.37472271249866,-129.285714285714));
#375=CARTESIAN_POINT('',(-8.74944542499733,4.37472271249866,-129.285714285714));
#376=CARTESIAN_POINT('',(-8.74944542499733,-4.37472271249867,-129.285714285714));
#377=CARTESIAN_POINT('',(0.,-4.37472271249867,-129.285714285714));
#378=CARTESIAN_POINT('',(0.,3.99999999946053E-16,-129.999999999988));
#379=CARTESIAN_POINT('',(0.,-3.41640786501171,-129.999999999988));
#380=CARTESIAN_POINT('',(0.,-3.90312782094782E-15,-129.));
#381=CARTESIAN_POINT('',(0.,3.99999999972951E-16,-129.999999999994));
#382=CARTESIAN_POINT('',(0.,-1.99188235294118E-13,-85.));
#383=CARTESIAN_POINT('',(0.,0.,0.));
#384=CARTESIAN_POINT('',(0.,-1.99188235294118E-13,-85.));
#385=CARTESIAN_POINT('',(0.,0.,0.));
#386=CARTESIAN_POINT('',(0.,-3.72999999999999E-14,-121.5));
#387=CARTESIAN_POINT('',(0.,-4.50000000000003,-121.5));
#388=CARTESIAN_POINT('',(0.,4.49999999999996,-121.5));
#389=CARTESIAN_POINT('',(0.,-1.933208926809E-13,-86.3228756555));
#390=CARTESIAN_POINT('',(0.,-4.50000000000037,-86.3228756555));
#391=CARTESIAN_POINT('',(0.,-3.73E-14,-121.5));
#392=CARTESIAN_POINT('',(0.,-1.99188235294118E-13,-85.));
#393=CARTESIAN_POINT('',(0.,-5.00000000000037,-85.));
#394=CARTESIAN_POINT('',(0.,-1.93421667571414E-13,-86.3228756554698));
#395=CARTESIAN_POINT('',(0.,-5.71752941176471E-13,-1.00000000000003));
#396=CARTESIAN_POINT('',(0.,-5.00000000000114,-1.00000000000005));
#397=CARTESIAN_POINT('',(0.,-3.73E-14,-121.5));
#398=CARTESIAN_POINT('',(0.,-5.76188235294117E-13,-1.38777878078145E-14));
#399=CARTESIAN_POINT('',(0.,-4.00000000000115,-3.16189642784053E-14));
#400=CARTESIAN_POINT('',(0.,-5.76188235294117E-13,-1.38777878078145E-14));
#401=CARTESIAN_POINT('',(0.,3.93436678200692E-29,-8.87058823529412E-15));
#402=CARTESIAN_POINT('',(0.,0.,0.));
#403=CARTESIAN_POINT('',(0.,0.,0.));
#404=MECHANICAL_DESIGN_GEOMETRIC_PRESENTATION_REPRESENTATION('',(#205,#206,
#207,#208,#209,#210,#211,#212,#213,#214,#215),#407);
#405=MECHANICAL_DESIGN_GEOMETRIC_PRESENTATION_REPRESENTATION('',(#216,#217,
#218,#219,#220),#408);
#406=(
GEOMETRIC_REPRESENTATION_CONTEXT(3)
GLOBAL_UNCERTAINTY_ASSIGNED_CONTEXT((#409))
GLOBAL_UNIT_ASSIGNED_CONTEXT((#417,#413,#412))
REPRESENTATION_CONTEXT('7820071_7801401','TOP_LEVEL_ASSEMBLY_PART')
);
#407=(
GEOMETRIC_REPRESENTATION_CONTEXT(3)
GLOBAL_UNCERTAINTY_ASSIGNED_CONTEXT((#410))
GLOBAL_UNIT_ASSIGNED_CONTEXT((#417,#413,#412))
REPRESENTATION_CONTEXT('CUT_7820071_7801401','COMPONENT_PART')
);
#408=(
GEOMETRIC_REPRESENTATION_CONTEXT(3)
GLOBAL_UNCERTAINTY_ASSIGNED_CONTEXT((#411))
GLOBAL_UNIT_ASSIGNED_CONTEXT((#417,#413,#412))
REPRESENTATION_CONTEXT('NOCUT_7820071_7801401','COMPONENT_PART')
);
#409=UNCERTAINTY_MEASURE_WITH_UNIT(LENGTH_MEASURE(2.E-5),#417,
'DISTANCE_ACCURACY_VALUE','Maximum Tolerance applied to model');
#410=UNCERTAINTY_MEASURE_WITH_UNIT(LENGTH_MEASURE(0.0254),#417,
'DISTANCE_ACCURACY_VALUE','Maximum Tolerance applied to model');
#411=UNCERTAINTY_MEASURE_WITH_UNIT(LENGTH_MEASURE(2.E-5),#417,
'DISTANCE_ACCURACY_VALUE','Maximum Tolerance applied to model');
#412=(
NAMED_UNIT(*)
SI_UNIT($,.STERADIAN.)
SOLID_ANGLE_UNIT()
);
#413=(
CONVERSION_BASED_UNIT('DEGREE',#415)
NAMED_UNIT(#414)
PLANE_ANGLE_UNIT()
);
#414=DIMENSIONAL_EXPONENTS(0.,0.,0.,0.,0.,0.,0.);
#415=PLANE_ANGLE_MEASURE_WITH_UNIT(PLANE_ANGLE_MEASURE(0.0174532925),#416);
#416=(
NAMED_UNIT(*)
PLANE_ANGLE_UNIT()
SI_UNIT($,.RADIAN.)
);
#417=(
LENGTH_UNIT()
NAMED_UNIT(*)
SI_UNIT(.MILLI.,.METRE.)
);
ENDSEC;
END-ISO-10303-21;
